  0
SECTION
  2
HEADER
  9
$ACADVER
  1
AC1014
  9
$ACADMAINTVER
 70
     5
  9
$DWGCODEPAGE
  3
ANSI_1252
  9
$INSBASE
 10
0.0
 20
0.0
 30
0.0
  9
$EXTMIN
 10
-8.858709
 20
-509.176666
 30
0.0
  9
$EXTMAX
 10
704.805471
 20
29.70556
 30
0.0
  9
$LIMMIN
 10
0.0
 20
0.0
  9
$LIMMAX
 10
420.0
 20
297.0
  9
$ORTHOMODE
 70
     1
  9
$REGENMODE
 70
     1
  9
$FILLMODE
 70
     1
  9
$QTEXTMODE
 70
     0
  9
$MIRRTEXT
 70
     0
  9
$DRAGMODE
 70
     2
  9
$LTSCALE
 40
1.0
  9
$OSMODE
 70
    39
  9
$ATTMODE
 70
     1
  9
$TEXTSIZE
 40
3.5
  9
$TRACEWID
 40
0.05
  9
$TEXTSTYLE
  7
ROMANS
  9
$CLAYER
  8
0
  9
$CELTYPE
  6
BYLAYER
  9
$CECOLOR
 62
   256
  9
$CELTSCALE
 40
1.0
  9
$DELOBJ
 70
     1
  9
$DISPSILH
 70
     0
  9
$DIMSCALE
 40
1.0
  9
$DIMASZ
 40
2.5
  9
$DIMEXO
 40
1.5
  9
$DIMDLI
 40
5.0
  9
$DIMRND
 40
0.0
  9
$DIMDLE
 40
0.0
  9
$DIMEXE
 40
1.0
  9
$DIMTP
 40
0.0
  9
$DIMTM
 40
0.0
  9
$DIMTXT
 40
3.0
  9
$DIMCEN
 40
0.0
  9
$DIMTSZ
 40
0.0
  9
$DIMTOL
 70
     0
  9
$DIMLIM
 70
     0
  9
$DIMTIH
 70
     0
  9
$DIMTOH
 70
     0
  9
$DIMSE1
 70
     0
  9
$DIMSE2
 70
     0
  9
$DIMTAD
 70
     1
  9
$DIMZIN
 70
     8
  9
$DIMBLK
  1

  9
$DIMASO
 70
     1
  9
$DIMSHO
 70
     1
  9
$DIMPOST
  1

  9
$DIMAPOST
  1

  9
$DIMALT
 70
     0
  9
$DIMALTD
 70
     2
  9
$DIMALTF
 40
25.4
  9
$DIMLFAC
 40
1.0
  9
$DIMTOFL
 70
     1
  9
$DIMTVP
 40
0.0
  9
$DIMTIX
 70
     0
  9
$DIMSOXD
 70
     0
  9
$DIMSAH
 70
     0
  9
$DIMBLK1
  1

  9
$DIMBLK2
  1

  9
$DIMSTYLE
  2
STANDAARD
  9
$DIMCLRD
 70
   256
  9
$DIMCLRE
 70
   256
  9
$DIMCLRT
 70
     2
  9
$DIMTFAC
 40
0.75
  9
$DIMGAP
 40
1.0
  9
$DIMJUST
 70
     0
  9
$DIMSD1
 70
     0
  9
$DIMSD2
 70
     0
  9
$DIMTOLJ
 70
     1
  9
$DIMTZIN
 70
     8
  9
$DIMALTZ
 70
     8
  9
$DIMALTTZ
 70
     8
  9
$DIMFIT
 70
     0
  9
$DIMUPT
 70
     0
  9
$DIMUNIT
 70
     2
  9
$DIMDEC
 70
     2
  9
$DIMTDEC
 70
     2
  9
$DIMALTU
 70
     2
  9
$DIMALTTD
 70
     2
  9
$DIMTXSTY
  7
ROMANS
  9
$DIMAUNIT
 70
     0
  9
$LUNITS
 70
     2
  9
$LUPREC
 70
     2
  9
$SKETCHINC
 40
0.1
  9
$FILLETRAD
 40
10.0
  9
$AUNITS
 70
     0
  9
$AUPREC
 70
     2
  9
$MENU
  1
wtb2
  9
$ELEVATION
 40
0.0
  9
$PELEVATION
 40
0.0
  9
$THICKNESS
 40
0.0
  9
$LIMCHECK
 70
     0
  9
$BLIPMODE
 70
     0
  9
$CHAMFERA
 40
1.6
  9
$CHAMFERB
 40
2.5
  9
$CHAMFERC
 40
0.0
  9
$CHAMFERD
 40
0.0
  9
$SKPOLY
 70
     0
  9
$TDCREATE
 40
2452466.423157523
  9
$TDUPDATE
 40
2452466.667440694
  9
$TDINDWG
 40
0.0027586111
  9
$TDUSRTIMER
 40
0.0027586111
  9
$USRTIMER
 70
     1
  9
$ANGBASE
 50
0.0
  9
$ANGDIR
 70
     0
  9
$PDMODE
 70
     3
  9
$PDSIZE
 40
0.0
  9
$PLINEWID
 40
0.0
  9
$COORDS
 70
     2
  9
$SPLFRAME
 70
     0
  9
$SPLINETYPE
 70
     6
  9
$SPLINESEGS
 70
     8
  9
$ATTDIA
 70
     0
  9
$ATTREQ
 70
     1
  9
$HANDLING
 70
     1
  9
$HANDSEED
  5
1AB1
  9
$SURFTAB1
 70
     6
  9
$SURFTAB2
 70
     6
  9
$SURFTYPE
 70
     6
  9
$SURFU
 70
     6
  9
$SURFV
 70
     6
  9
$UCSNAME
  2

  9
$UCSORG
 10
0.0
 20
0.0
 30
0.0
  9
$UCSXDIR
 10
1.0
 20
0.0
 30
0.0
  9
$UCSYDIR
 10
0.0
 20
1.0
 30
0.0
  9
$PUCSNAME
  2

  9
$PUCSORG
 10
0.0
 20
0.0
 30
0.0
  9
$PUCSXDIR
 10
1.0
 20
0.0
 30
0.0
  9
$PUCSYDIR
 10
0.0
 20
1.0
 30
0.0
  9
$USERI1
 70
     0
  9
$USERI2
 70
     0
  9
$USERI3
 70
     0
  9
$USERI4
 70
     0
  9
$USERI5
 70
     0
  9
$USERR1
 40
0.0
  9
$USERR2
 40
0.0
  9
$USERR3
 40
0.0
  9
$USERR4
 40
0.0
  9
$USERR5
 40
0.0
  9
$WORLDVIEW
 70
     1
  9
$SHADEDGE
 70
     3
  9
$SHADEDIF
 70
    70
  9
$TILEMODE
 70
     1
  9
$MAXACTVP
 70
    16
  9
$PINSBASE
 10
0.0
 20
0.0
 30
0.0
  9
$PLIMCHECK
 70
     0
  9
$PEXTMIN
 10
1.000000E+20
 20
1.000000E+20
 30
1.000000E+20
  9
$PEXTMAX
 10
-1.000000E+20
 20
-1.000000E+20
 30
-1.000000E+20
  9
$PLIMMIN
 10
0.0
 20
0.0
  9
$PLIMMAX
 10
12.0
 20
9.0
  9
$UNITMODE
 70
     0
  9
$VISRETAIN
 70
     0
  9
$PLINEGEN
 70
     0
  9
$PSLTSCALE
 70
     0
  9
$TREEDEPTH
 70
  3020
  9
$PICKSTYLE
 70
     1
  9
$CMLSTYLE
  2
STANDARD
  9
$CMLJUST
 70
     0
  9
$CMLSCALE
 40
1.0
  9
$PROXYGRAPHICS
 70
     1
  9
$MEASUREMENT
 70
     1
  0
ENDSEC
  0
SECTION
  2
CLASSES
  0
CLASS
  1
LWPOLYLINE
  2
AcDbPolyline
  3
"AutoCAD"
 90
        0
280
     0
281
     1
  0
CLASS
  1
AMLOADER
  2
AMLoader
  3
AMAcad
 90
        0
280
     0
281
     0
  0
ENDSEC
  0
SECTION
  2
TABLES
  0
TABLE
  2
VPORT
  5
8
100
AcDbSymbolTable
 70
     2
  0
VPORT
  5
1AB0
100
AcDbSymbolTableRecord
100
AcDbViewportTableRecord
  2
*ACTIVE
 70
     0
 10
0.0
 20
0.0
 11
1.0
 21
1.0
 12
347.973381
 22
-239.735553
 13
0.0
 23
0.0
 14
2.5
 24
2.5
 15
5.0
 25
5.0
 16
0.0
 26
0.0
 36
1.0
 17
0.0
 27
0.0
 37
0.0
 40
544.948442
 41
1.650376
 42
50.0
 43
0.0
 44
0.0
 50
0.0
 51
0.0
 71
     0
 72
 20000
 73
     1
 74
     0
 75
     0
 76
     0
 77
     0
 78
     1
  0
ENDTAB
  0
TABLE
  2
LTYPE
  5
5
100
AcDbSymbolTable
 70
     1
  0
LTYPE
  5
12
100
AcDbSymbolTableRecord
100
AcDbLinetypeTableRecord
  2
BYBLOCK
 70
     0
  3

 72
    65
 73
     0
 40
0.0
  0
LTYPE
  5
13
100
AcDbSymbolTableRecord
100
AcDbLinetypeTableRecord
  2
BYLAYER
 70
     0
  3

 72
    65
 73
     0
 40
0.0
  0
LTYPE
  5
14
100
AcDbSymbolTableRecord
100
AcDbLinetypeTableRecord
  2
CONTINUOUS
 70
     0
  3
Solid line
 72
    65
 73
     0
 40
0.0
  0
ENDTAB
  0
TABLE
  2
LAYER
  5
2
100
AcDbSymbolTable
 70
     4
  0
LAYER
  5
F
100
AcDbSymbolTableRecord
100
AcDbLayerTableRecord
  2
0
 70
     0
 62
     8
  6
CONTINUOUS
  0
LAYER
  5
993
100
AcDbSymbolTableRecord
100
AcDbLayerTableRecord
  2
VHH-050
 70
     0
 62
     4
  6
CONTINUOUS
  0
LAYER
  5
994
100
AcDbSymbolTableRecord
100
AcDbLayerTableRecord
  2
VHH-025
 70
     0
 62
     7
  6
CONTINUOUS
  0
LAYER
  5
995
100
AcDbSymbolTableRecord
100
AcDbLayerTableRecord
  2
VHH-070
 70
     0
 62
     4
  6
CONTINUOUS
  0
ENDTAB
  0
TABLE
  2
STYLE
  5
3
100
AcDbSymbolTable
 70
     2
  0
STYLE
  5
10
100
AcDbSymbolTableRecord
100
AcDbTextStyleTableRecord
  2
STANDARD
 70
     0
 40
0.0
 41
1.0
 50
0.0
 71
     0
 42
15.0
  3
txt
  4

  0
STYLE
  5
1C
100
AcDbSymbolTableRecord
100
AcDbTextStyleTableRecord
  2
ROMANS
 70
     0
 40
0.0
 41
1.0
 50
0.0
 71
     0
 42
3.5
  3
romans
  4

  0
ENDTAB
  0
TABLE
  2
VIEW
  5
6
100
AcDbSymbolTable
 70
     2
  0
VIEW
  5
600
100
AcDbSymbolTableRecord
100
AcDbViewTableRecord
  2
VIEW0
 70
     0
 40
297.0
 10
210.0
 20
148.5
 41
420.0
 11
0.0
 21
0.0
 31
1.0
 12
0.0
 22
0.0
 32
0.0
 42
50.0
 43
0.0
 44
0.0
 50
0.0
 71
     0
  0
VIEW
  5
601
100
AcDbSymbolTableRecord
100
AcDbViewTableRecord
  2
VIEW1
 70
     0
 40
297.0
 10
210.0
 20
148.5
 41
420.0
 11
0.0
 21
0.0
 31
1.0
 12
0.0
 22
0.0
 32
0.0
 42
50.0
 43
0.0
 44
0.0
 50
0.0
 71
     0
  0
ENDTAB
  0
TABLE
  2
UCS
  5
7
100
AcDbSymbolTable
 70
     0
  0
ENDTAB
  0
TABLE
  2
APPID
  5
9
100
AcDbSymbolTable
 70
     3
  0
APPID
  5
11
100
AcDbSymbolTableRecord
100
AcDbRegAppTableRecord
  2
ACAD
 70
     0
  0
APPID
  5
37E
100
AcDbSymbolTableRecord
100
AcDbRegAppTableRecord
  2
ADMEPROFILELINK
 70
     0
  0
APPID
  5
974
100
AcDbSymbolTableRecord
100
AcDbRegAppTableRecord
  2
AMACAD
 70
     0
  0
ENDTAB
  0
TABLE
  2
DIMSTYLE
  5
A
100
AcDbSymbolTable
 70
     2
  0
DIMSTYLE
105
4E
100
AcDbSymbolTableRecord
100
AcDbDimStyleTableRecord
  2
STANDARD
 70
     0
  3

  4

  5

  6

  7

 40
1.0
 41
2.2
 42
1.5
 43
7.0
 44
1.2
 45
0.0
 46
0.0
 47
0.0
 48
0.0
140
2.5
141
-3.0
142
0.0
143
25.4
144
1.0
145
0.0
146
1.0
147
0.5
 71
     0
 72
     0
 73
     0
 74
     0
 75
     0
 76
     0
 77
     1
 78
     8
170
     0
171
     2
172
     1
173
     0
174
     0
175
     0
176
   256
177
   256
178
     2
270
     2
271
     4
272
     4
273
     2
274
     2
340
10
275
     0
280
     0
281
     0
282
     0
283
     1
284
     0
285
     0
286
     0
287
     3
288
     0
  0
DIMSTYLE
105
190
100
AcDbSymbolTableRecord
100
AcDbDimStyleTableRecord
  2
STANDAARD
 70
     0
  3

  4

  5

  6

  7

 40
1.0
 41
2.5
 42
1.5
 43
5.0
 44
1.0
 45
0.0
 46
0.0
 47
0.0
 48
0.0
140
3.0
141
0.0
142
0.0
143
25.4
144
1.0
145
0.0
146
0.75
147
1.0
 71
     0
 72
     0
 73
     0
 74
     0
 75
     0
 76
     0
 77
     1
 78
     8
170
     0
171
     2
172
     1
173
     0
174
     0
175
     0
176
   256
177
   256
178
     2
270
     2
271
     2
272
     2
273
     2
274
     2
340
1C
275
     0
280
     0
281
     0
282
     0
283
     1
284
     8
285
     8
286
     8
287
     0
288
     0
  0
ENDTAB
  0
TABLE
  2
BLOCK_RECORD
  5
1
100
AcDbSymbolTable
 70
     4
  0
BLOCK_RECORD
  5
18
100
AcDbSymbolTableRecord
100
AcDbBlockTableRecord
  2
*MODEL_SPACE
  0
BLOCK_RECORD
  5
15
100
AcDbSymbolTableRecord
100
AcDbBlockTableRecord
  2
*PAPER_SPACE
  0
BLOCK_RECORD
  5
1B2
100
AcDbSymbolTableRecord
100
AcDbBlockTableRecord
  2
TEK_INFO
  0
BLOCK_RECORD
  5
984
100
AcDbSymbolTableRecord
100
AcDbBlockTableRecord
  2
A$C7A7B4A19
  0
BLOCK_RECORD
  5
989
100
AcDbSymbolTableRecord
100
AcDbBlockTableRecord
  2
A$C605007EB
  0
BLOCK_RECORD
  5
98E
100
AcDbSymbolTableRecord
100
AcDbBlockTableRecord
  2
A$C32063EEB
  0
ENDTAB
  0
ENDSEC
  0
SECTION
  2
BLOCKS
  0
BLOCK
  5
46
100
AcDbEntity
  8
0
100
AcDbBlockBegin
  2
*MODEL_SPACE
 70
     0
 10
0.0
 20
0.0
 30
0.0
  3
*MODEL_SPACE
  1

  0
ENDBLK
  5
47
100
AcDbEntity
  8
0
100
AcDbBlockEnd
  0
BLOCK
  5
44
100
AcDbEntity
 67
     1
  8
0
100
AcDbBlockBegin
  2
*PAPER_SPACE
 70
     0
 10
0.0
 20
0.0
 30
0.0
  3
*PAPER_SPACE
  1

  0
ENDBLK
  5
45
100
AcDbEntity
 67
     1
  8
0
100
AcDbBlockEnd
  0
BLOCK
  5
1B9
100
AcDbEntity
  8
0
100
AcDbBlockBegin
  2
TEK_INFO
 70
     2
 10
0.0
 20
0.0
 30
0.0
  3
TEK_INFO
  1

  0
ATTDEF
  5
276
100
AcDbEntity
  8
0
100
AcDbText
 10
15.0
 20
31.5
 30
0.0
 40
2.5
  1
A3
  7
ROMANS
100
AcDbAttributeDefinition
  3

  2
FORMAAT
 70
     9
  0
ATTDEF
  5
277
100
AcDbEntity
  8
0
100
AcDbText
 10
15.0
 20
27.5
 30
0.0
 40
2.5
  1
hor
  7
ROMANS
100
AcDbAttributeDefinition
  3

  2
POSITIE
 70
     9
  0
ATTDEF
  5
278
100
AcDbEntity
  8
0
100
AcDbText
 10
15.0
 20
23.5
 30
0.0
 40
2.5
  1
1
  7
ROMANS
100
AcDbAttributeDefinition
  3

  2
AANTAL
 70
     9
  0
ATTDEF
  5
279
100
AcDbEntity
  8
0
100
AcDbText
 10
15.0
 20
19.5
 30
0.0
 40
2.5
  1
1
  7
ROMANS
100
AcDbAttributeDefinition
  3

  2
TEKSCHAAL
 70
     9
  0
ATTDEF
  5
27A
100
AcDbEntity
  8
0
100
AcDbText
 10
15.0
 20
15.5
 30
0.0
 40
2.5
  1
1
  7
ROMANS
100
AcDbAttributeDefinition
  3

  2
SNAPSCHAAL
 70
     9
  0
ATTDEF
  5
27B
100
AcDbEntity
  8
0
100
AcDbText
 10
15.0
 20
11.5
 30
0.0
 40
2.5
  1
1
  7
ROMANS
100
AcDbAttributeDefinition
  3

  2
BLADAANTAL
 70
     9
  0
ENDBLK
  5
1BA
100
AcDbEntity
  8
0
100
AcDbBlockEnd
  0
BLOCK
  5
987
100
AcDbEntity
  8
0
100
AcDbBlockBegin
  2
A$C7A7B4A19
 70
     0
 10
0.0
 20
0.0
 30
0.0
  3
A$C7A7B4A19
  1

  0
LINE
  5
985
100
AcDbEntity
  8
VHH-050
100
AcDbLine
 10
0.000002
 20
17.677669
 30
0.0
 11
35.355341
 21
17.677669
 31
0.0
  0
LINE
  5
986
100
AcDbEntity
  8
VHH-050
100
AcDbLine
 10
17.677671
 20
-0.000001
 30
0.0
 11
17.677671
 21
35.355338
 31
0.0
  0
ENDBLK
  5
988
100
AcDbEntity
  8
0
100
AcDbBlockEnd
  0
BLOCK
  5
98C
100
AcDbEntity
  8
0
100
AcDbBlockBegin
  2
A$C605007EB
 70
     0
 10
0.0
 20
0.0
 30
0.0
  3
A$C605007EB
  1

  0
LINE
  5
98A
100
AcDbEntity
  8
VHH-050
100
AcDbLine
 10
0.000002
 20
25.000002
 30
0.0
 11
25.000002
 21
0.000002
 31
0.0
  0
LINE
  5
98B
100
AcDbEntity
  8
VHH-050
100
AcDbLine
 10
0.000002
 20
0.000002
 30
0.0
 11
25.000002
 21
25.000002
 31
0.0
  0
ENDBLK
  5
98D
100
AcDbEntity
  8
0
100
AcDbBlockEnd
  0
BLOCK
  5
991
100
AcDbEntity
  8
0
100
AcDbBlockBegin
  2
A$C32063EEB
 70
     0
 10
0.0
 20
0.0
 30
0.0
  3
A$C32063EEB
  1

  0
CIRCLE
  5
98F
100
AcDbEntity
  8
VHH-050
100
AcDbCircle
 10
8.838839
 20
8.838837
 30
0.0
 40
1.838835
  0
CIRCLE
  5
990
100
AcDbEntity
  8
VHH-050
100
AcDbCircle
 10
8.838839
 20
8.838837
 30
0.0
 40
8.838835
  0
ENDBLK
  5
992
100
AcDbEntity
  8
0
100
AcDbBlockEnd
  0
ENDSEC
  0
SECTION
  2
ENTITIES
  0
INSERT
  5
27C
100
AcDbEntity
  8
0
100
AcDbBlockReference
 66
     1
  2
TEK_INFO
 10
0.0
 20
0.0
 30
0.0
  0
ATTRIB
  5
27D
100
AcDbEntity
  8
0
100
AcDbText
 10
15.0
 20
31.5
 30
0.0
 40
2.5
  1
A3
  7
ROMANS
100
AcDbAttribute
  2
FORMAAT
 70
     9
  0
ATTRIB
  5
27E
100
AcDbEntity
  8
0
100
AcDbText
 10
15.0
 20
27.5
 30
0.0
 40
2.5
  1
hor
  7
ROMANS
100
AcDbAttribute
  2
POSITIE
 70
     9
  0
ATTRIB
  5
27F
100
AcDbEntity
  8
0
100
AcDbText
 10
15.0
 20
23.5
 30
0.0
 40
2.5
  1
1
  7
ROMANS
100
AcDbAttribute
  2
AANTAL
 70
     9
  0
ATTRIB
  5
280
100
AcDbEntity
  8
0
100
AcDbText
 10
15.0
 20
19.5
 30
0.0
 40
2.5
  1
1
  7
ROMANS
100
AcDbAttribute
  2
TEKSCHAAL
 70
     9
  0
ATTRIB
  5
281
100
AcDbEntity
  8
0
100
AcDbText
 10
15.0
 20
15.5
 30
0.0
 40
2.5
  1
1
  7
ROMANS
100
AcDbAttribute
  2
SNAPSCHAAL
 70
     9
  0
ATTRIB
  5
282
100
AcDbEntity
  8
0
100
AcDbText
 10
15.0
 20
11.5
 30
0.0
 40
2.5
  1
1
  7
ROMANS
100
AcDbAttribute
  2
BLADAANTAL
 70
     9
  0
SEQEND
  5
283
100
AcDbEntity
  8
0
  0
LWPOLYLINE
  5
1237
100
AcDbEntity
  8
VHH-025
100
AcDbPolyline
 90
        9
 70
     0
 43
0.0
 10
218.989737
 20
-349.704212
 10
195.374182
 20
-355.167567
 10
171.303499
 20
-359.119603
 10
146.92401
 20
-361.510997
 10
122.388473
 20
-362.311523
 10
97.852935
 20
-361.510997
 10
73.473446
 20
-359.119603
 10
49.402763
 20
-355.167567
 10
25.787208
 20
-349.704212
  0
LWPOLYLINE
  5
1238
100
AcDbEntity
  8
VHH-025
100
AcDbPolyline
 90
       10
 70
     0
 43
0.0
 10
216.240698
 20
-323.494167
 10
202.957066
 20
-325.697682
 10
196.225327
 20
-326.673372
 10
192.837171
 20
-327.129681
 10
191.137551
 20
-327.34995
 10
190.28636
 20
-327.458113
 10
189.860419
 20
-327.511701
 10
189.647363
 20
-327.538372
 10
189.434249
 20
-327.564961
 10
162.388472
 20
-330.232757
  0
LWPOLYLINE
  5
1239
100
AcDbEntity
  8
VHH-025
100
AcDbPolyline
 90
        2
 70
     0
 43
0.0
 10
218.788473
 20
-213.031032
 10
135.134537
 20
-213.039073
  0
LINE
  5
123A
100
AcDbEntity
  8
VHH-025
100
AcDbLine
 10
239.387385
 20
0.0
 30
0.0
 11
5.391735
 21
0.0
 31
0.0
  0
LWPOLYLINE
  5
123B
100
AcDbEntity
  8
VHH-025
100
AcDbPolyline
 90
        2
 70
     0
 43
0.0
 10
162.88956
 20
-19.539228
 10
208.405069
 20
-19.097699
  0
LWPOLYLINE
  5
123C
100
AcDbEntity
  8
VHH-025
100
AcDbPolyline
 90
        2
 70
     0
 43
0.0
 10
208.405069
 20
-11.233013
 10
162.88956
 20
-10.791485
  0
LWPOLYLINE
  5
123D
100
AcDbEntity
  8
VHH-025
100
AcDbPolyline
 90
        5
 70
     0
 43
0.0
 10
162.388473
 20
-355.058505
 10
162.388473
 20
-350.166299
 10
162.388473
 20
-344.743329
 10
162.388473
 20
-338.773094
 10
162.388473
 20
-332.247411
  0
LWPOLYLINE
  5
123E
100
AcDbEntity
  8
VHH-025
100
AcDbPolyline
 90
       22
 70
     0
 43
0.0
 10
25.787208
 20
-349.704212
 10
26.50104
 20
-344.897253
 10
26.844937
 20
-342.177282
 10
27.013681
 20
-340.735432
 10
27.097256
 20
-339.993675
 10
27.138845
 20
-339.617543
 10
27.15959
 20
-339.428157
 10
27.180302
 20
-339.237889
 10
27.343268
 20
-337.699691
 10
27.421838
 20
-336.931169
 10
27.460383
 20
-336.546954
 10
27.479466
 20
-336.354717
 10
27.48896
 20
-336.258546
 10
27.498421
 20
-336.162332
 10
27.650006
 20
-334.551211
 10
27.724106
 20
-333.712936
 10
27.760729
 20
-333.285478
 10
27.778934
 20
-333.069648
 10
27.78801
 20
-332.961205
 10
27.792541
 20
-332.906851
 10
27.797068
 20
-332.852409
 10
28.318734
 20
-325.438479
  0
LWPOLYLINE
  5
123F
100
AcDbEntity
  8
VHH-025
100
AcDbPolyline
 90
        5
 70
     0
 43
0.0
 10
82.388472
 20
-332.247411
 10
82.388473
 20
-338.773612
 10
82.388473
 20
-344.743865
 10
82.388473
 20
-350.166704
 10
82.388473
 20
-355.058505
  0
LWPOLYLINE
  5
1240
100
AcDbEntity
  8
VHH-025
100
AcDbPolyline
 90
        3
 70
     0
 43
0.0
 10
22.093993
 20
-345.242635
 10
19.296806
 20
-310.20501
 10
17.848854
 20
-288.996634
  0
LWPOLYLINE
  5
1495
100
AcDbEntity
  8
VHH-025
100
AcDbPolyline
 90
       11
 70
     0
 43
0.0
 10
82.388473
 20
-355.058505
 10
82.533369
 20
-355.470794
 10
82.713114
 20
-355.681073
 10
82.96465
 20
-355.893376
 10
83.662885
 20
-356.307649
 10
84.610297
 20
-356.702464
 10
85.761092
 20
-357.058395
 10
86.407544
 20
-357.219786
 10
87.085484
 20
-357.365956
 10
88.523985
 20
-357.610743
 10
90.040557
 20
-357.785829
  0
LWPOLYLINE
  5
1496
100
AcDbEntity
  8
VHH-025
100
AcDbPolyline
 90
        8
 70
     0
 43
0.0
 10
25.787208
 20
-349.704212
 10
24.384658
 20
-349.083505
 10
23.770935
 20
-348.615836
 10
23.239217
 20
-348.062068
 10
22.795415
 20
-347.429779
 10
22.454428
 20
-346.742497
 10
22.21807
 20
-346.005918
 10
22.093993
 20
-345.242635
  0
LWPOLYLINE
  5
1497
100
AcDbEntity
  8
VHH-025
100
AcDbPolyline
 90
       13
 70
     0
 43
0.0
 10
90.040557
 20
-357.785829
 10
98.131746
 20
-358.417335
 10
102.168867
 20
-358.664714
 10
104.184998
 20
-358.771407
 10
105.192418
 20
-358.820516
 10
106.199393
 20
-358.866807
 10
122.389828
 20
-359.227552
 10
130.480994
 20
-359.137431
 10
134.529811
 20
-359.024677
 10
136.554726
 20
-358.951346
 10
137.567272
 20
-358.910439
 10
138.579863
 20
-358.866704
 10
154.736388
 20
-357.785829
  0
ELLIPSE
  5
1498
100
AcDbEntity
  8
VHH-025
100
AcDbEllipse
 10
122.388473
 20
-374.55876
 30
0.0
 11
-9.02141366785881
 21
0.000000005659161
 31
0.0
210
0.0
220
0.0
230
1.0
 40
0.096226
 41
6.283080207638587
 42
9.424672916864945
  0
LINE
  5
1499
100
AcDbEntity
  8
VHH-025
100
AcDbLine
 10
134.230592
 20
-361.925147
 30
0.0
 11
131.409886
 21
-374.558852
 31
0.0
  0
LINE
  5
149A
100
AcDbEntity
  8
VHH-025
100
AcDbLine
 10
110.546353
 20
-361.925147
 30
0.0
 11
113.367059
 21
-374.558852
 31
0.0
  0
LWPOLYLINE
  5
149B
100
AcDbEntity
  8
VHH-025
100
AcDbPolyline
 90
       11
 70
     0
 43
0.0
 10
154.736388
 20
-357.785829
 10
156.24204
 20
-357.612295
 10
156.97249
 20
-357.498602
 10
157.685384
 20
-357.36717
 10
159.003929
 20
-357.06159
 10
160.16282
 20
-356.703832
 10
161.106028
 20
-356.311596
 10
161.49157
 20
-356.104501
 10
161.809843
 20
-355.895189
 10
162.241365
 20
-355.47399
 10
162.388473
 20
-355.058505
  0
LINE
  5
149C
100
AcDbEntity
  8
VHH-025
100
AcDbLine
 10
7.38956
 20
-332.0
 30
0.0
 11
7.38956
 21
0.0
 31
0.0
  0
LINE
  5
149D
100
AcDbEntity
  8
VHH-025
100
AcDbLine
 10
5.391735
 20
-332.0
 30
0.0
 11
5.391735
 21
0.0
 31
0.0
  0
LINE
  5
149E
100
AcDbEntity
  8
VHH-025
100
AcDbLine
 10
25.48956
 20
-218.158028
 30
0.0
 11
25.48956
 21
0.0
 31
0.0
  0
LWPOLYLINE
  5
149F
100
AcDbEntity
  8
VHH-025
100
AcDbPolyline
 90
        3
 70
     0
 43
0.0
 10
19.267433
 20
-218.158028
 10
20.597247
 20
-238.717264
 10
21.945809
 20
-260.40696
  0
LWPOLYLINE
  5
14A0
100
AcDbEntity
  8
VHH-025
100
AcDbPolyline
 90
        2
 70
     0
 43
0.0
 10
19.490163
 20
-260.900015
 10
17.285575
 20
-218.833978
  0
LWPOLYLINE
  5
14A1
100
AcDbEntity
  8
VHH-025
100
AcDbPolyline
 90
       11
 70
     0
 43
0.0
 10
88.774512
 20
-306.157187
 10
87.549235
 20
-306.203739
 10
86.94612
 20
-306.3207
 10
86.35516
 20
-306.49979
 10
85.252591
 20
-307.02946
 10
84.743763
 20
-307.378615
 10
84.277135
 20
-307.774755
 10
83.47582
 20
-308.700072
 10
82.880887
 20
-309.764314
 10
82.512525
 20
-310.930986
 10
82.388473
 20
-312.144755
  0
LWPOLYLINE
  5
14A2
100
AcDbEntity
  8
VHH-025
100
AcDbPolyline
 90
        3
 70
     0
 43
0.0
 10
11.217456
 20
-260.900015
 10
12.275814
 20
-260.900015
 10
14.497696
 20
-260.900015
  0
LWPOLYLINE
  5
14A3
100
AcDbEntity
  8
VHH-025
100
AcDbPolyline
 90
        5
 70
     0
 43
0.0
 10
15.166474
 20
-260.900015
 10
15.983448
 20
-260.900015
 10
16.61119
 20
-260.900015
 10
17.025668
 20
-260.900015
 10
17.204416
 20
-260.900015
  0
LWPOLYLINE
  5
14A4
100
AcDbEntity
  8
VHH-025
100
AcDbPolyline
 90
        3
 70
     0
 43
0.0
 10
14.497696
 20
-260.900015
 10
14.773262
 20
-260.900015
 10
15.166474
 20
-260.900015
  0
LWPOLYLINE
  5
14A5
100
AcDbEntity
  8
VHH-025
100
AcDbPolyline
 90
        2
 70
     0
 43
0.0
 10
17.204416
 20
-260.900015
 10
19.490163
 20
-260.900015
  0
ELLIPSE
  5
14A6
100
AcDbEntity
  8
VHH-025
100
AcDbEllipse
 10
2.479094
 20
-304.0
 30
0.0
 11
0.0000000000001328
 21
15.00000158390118
 31
0.0
210
0.0
220
0.0
230
-1.0
 40
0.165303
 41
3.762083072775073
 42
5.662694887994195
  0
LWPOLYLINE
  5
14A7
100
AcDbEntity
  8
VHH-025
100
AcDbPolyline
 90
        4
 70
     0
 43
0.0
 10
15.430369
 20
-285.030523
 10
14.845304
 20
-284.49754
 10
14.643295
 20
-284.155166
 10
14.513008
 20
-283.779169
  0
LWPOLYLINE
  5
14A8
100
AcDbEntity
  8
VHH-025
100
AcDbPolyline
 90
        7
 70
     0
 43
0.0
 10
17.848854
 20
-288.996634
 10
17.628158
 20
-287.814388
 10
17.411449
 20
-287.24901
 10
17.129411
 20
-286.716337
 10
16.786202
 20
-286.222872
 10
16.3826
 20
-285.770498
 10
15.430369
 20
-285.030523
  0
LWPOLYLINE
  5
14A9
100
AcDbEntity
  8
VHH-025
100
AcDbPolyline
 90
        5
 70
     0
 43
0.0
 10
14.513008
 20
-283.779169
 10
12.346365
 20
-272.414283
 10
11.651676
 20
-266.669692
 10
11.40122
 20
-263.787633
 10
11.217456
 20
-260.900015
  0
LWPOLYLINE
  5
14AA
100
AcDbEntity
  8
VHH-025
100
AcDbPolyline
 90
        7
 70
     0
 43
0.0
 10
21.945809
 20
-260.40696
 10
22.893373
 20
-275.404655
 10
23.913433
 20
-290.471847
 10
24.450896
 20
-298.03127
 10
24.726547
 20
-301.816758
 10
25.006759
 20
-305.604732
 10
26.17372
 20
-320.781111
  0
LWPOLYLINE
  5
14AB
100
AcDbEntity
  8
VHH-025
100
AcDbPolyline
 90
       17
 70
     0
 43
0.0
 10
15.166474
 20
-260.900015
 10
15.257236
 20
-262.77242
 10
15.367576
 20
-265.003756
 10
15.398133
 20
-265.612499
 10
15.40204
 20
-265.690074
 10
15.405435
 20
-265.757453
 10
15.412055
 20
-265.888712
 10
15.425314
 20
-266.151074
 10
15.478592
 20
-267.198443
 10
15.586422
 20
-269.283106
 10
15.640998
 20
-270.319492
 10
15.647851
 20
-270.448695
 10
15.653926
 20
-270.563054
 10
15.665938
 20
-270.788649
 10
15.690481
 20
-271.247437
 10
15.795808
 20
-273.183353
 10
16.045001
 20
-277.532428
  0
LINE
  5
14AC
100
AcDbEntity
  8
VHH-025
100
AcDbLine
 10
2.178938
 20
-290.416858
 30
0.0
 11
5.391735
 21
-288.999998
 31
0.0
  0
LINE
  5
14AD
100
AcDbEntity
  8
VHH-025
100
AcDbLine
 10
2.178938
 20
-317.583142
 30
0.0
 11
5.391735
 21
-319.000002
 31
0.0
  0
ARC
  5
14AE
100
AcDbEntity
  8
VHH-025
100
AcDbCircle
 10
2.985956
 20
-292.24681
 30
0.0
 40
2.0
100
AcDbArc
 50
113.797726
 51
166.976183
  0
ARC
  5
14AF
100
AcDbEntity
  8
VHH-025
100
AcDbCircle
 10
2.985956
 20
-315.75319
 30
0.0
 40
2.0
100
AcDbArc
 50
193.023817
 51
246.202274
  0
LINE
  5
14B0
100
AcDbEntity
  8
VHH-025
100
AcDbLine
 10
11.217456
 20
-260.900015
 30
0.0
 11
7.38956
 21
-260.900015
 31
0.0
  0
LWPOLYLINE
  5
14B1
100
AcDbEntity
  8
VHH-025
100
AcDbPolyline
 90
        7
 70
     0
 43
0.0
 10
28.536247
 20
-323.494167
 10
42.008085
 20
-325.726136
 10
55.545069
 20
-327.590127
 10
69.146589
 20
-329.099371
 10
75.97143
 20
-329.724161
 10
79.389695
 20
-330.004519
 10
82.388473
 20
-330.232757
  0
LINE
  5
14B2
100
AcDbEntity
  8
VHH-025
100
AcDbLine
 10
21.036783
 20
-332.0
 30
0.0
 11
5.391735
 21
-332.0
 31
0.0
  0
LWPOLYLINE
  5
14B3
100
AcDbEntity
  8
VHH-025
100
AcDbPolyline
 90
        4
 70
     0
 43
0.0
 10
82.388473
 20
-330.232757
 10
82.388473
 20
-330.85648
 10
82.388473
 20
-331.436364
 10
82.388472
 20
-332.247411
  0
LWPOLYLINE
  5
14B4
100
AcDbEntity
  8
VHH-025
100
AcDbPolyline
 90
        2
 70
     0
 43
0.0
 10
82.388473
 20
-330.076085
 10
82.388473
 20
-312.144755
  0
LWPOLYLINE
  5
14B5
100
AcDbEntity
  8
VHH-025
100
AcDbPolyline
 90
        2
 70
     0
 43
0.0
 10
82.388473
 20
-312.144755
 10
82.388473
 20
-330.232757
  0
LWPOLYLINE
  5
14B6
100
AcDbEntity
  8
VHH-025
100
AcDbPolyline
 90
       15
 70
     0
 43
0.0
 10
26.17372
 20
-320.781111
 10
26.248172
 20
-321.260797
 10
26.394021
 20
-321.7219
 10
26.441957
 20
-321.83412
 10
26.494138
 20
-321.943973
 10
26.610592
 20
-322.155477
 10
26.891885
 20
-322.545665
 10
26.972516
 20
-322.636219
 10
27.057243
 20
-322.72368
 10
27.236052
 20
-322.886265
 10
27.629556
 20
-323.161599
 10
27.73548
 20
-323.219949
 10
27.844489
 20
-323.273978
 10
28.068514
 20
-323.367359
 10
28.536247
 20
-323.494167
  0
LWPOLYLINE
  5
14B7
100
AcDbEntity
  8
VHH-025
100
AcDbPolyline
 90
       17
 70
     0
 43
0.0
 10
24.373515
 20
-321.070264
 10
24.511301
 20
-321.874136
 10
24.621882
 20
-322.242517
 10
24.685808
 20
-322.417734
 10
24.719714
 20
-322.50305
 10
24.737127
 20
-322.545131
 10
24.754837
 20
-322.586824
 10
25.131463
 20
-323.295
 10
25.354814
 20
-323.613517
 10
25.473955
 20
-323.763452
 10
25.535233
 20
-323.83605
 10
25.597593
 20
-323.907056
 10
26.175956
 20
-324.454445
 10
26.492773
 20
-324.687779
 10
26.656992
 20
-324.793976
 10
26.824668
 20
-324.893077
 10
28.318734
 20
-325.438479
  0
CIRCLE
  5
14B8
100
AcDbEntity
  8
VHH-025
100
AcDbCircle
 10
88.690692
 20
-312.007599
 30
0.0
 40
2.204139
  0
CIRCLE
  5
14B9
100
AcDbEntity
  8
VHH-025
100
AcDbCircle
 10
156.086253
 20
-312.007599
 30
0.0
 40
2.204139
  0
LWPOLYLINE
  5
14BA
100
AcDbEntity
  8
VHH-025
100
AcDbPolyline
 90
        2
 70
     0
 43
0.0
 10
128.930265
 20
-307.22157
 10
156.002433
 20
-306.157187
  0
LWPOLYLINE
  5
14BB
100
AcDbEntity
  8
VHH-025
100
AcDbPolyline
 90
        2
 70
     0
 43
0.0
 10
122.388473
 20
-307.276471
 10
115.84668
 20
-307.22157
  0
LWPOLYLINE
  5
14BC
100
AcDbEntity
  8
VHH-025
100
AcDbPolyline
 90
        2
 70
     0
 43
0.0
 10
122.388473
 20
-307.276471
 10
128.930265
 20
-307.22157
  0
LWPOLYLINE
  5
14BD
100
AcDbEntity
  8
VHH-025
100
AcDbPolyline
 90
        2
 70
     0
 43
0.0
 10
115.84668
 20
-307.22157
 10
88.774512
 20
-306.157187
  0
LWPOLYLINE
  5
14BE
100
AcDbEntity
  8
VHH-025
100
AcDbPolyline
 90
       12
 70
     0
 43
0.0
 10
162.388473
 20
-312.144755
 10
162.264941
 20
-310.93351
 10
162.111601
 20
-310.343146
 10
161.897472
 20
-309.767589
 10
161.304134
 20
-308.704367
 10
160.925815
 20
-308.218877
 10
160.502117
 20
-307.776926
 10
159.529903
 20
-307.032866
 10
158.425661
 20
-306.501187
 10
157.838034
 20
-306.32249
 10
157.23133
 20
-306.204251
 10
156.002433
 20
-306.157187
  0
LWPOLYLINE
  5
14BF
100
AcDbEntity
  8
VHH-025
100
AcDbPolyline
 90
        2
 70
     0
 43
0.0
 10
128.930265
 20
-331.217272
 10
156.002433
 20
-330.152889
  0
LWPOLYLINE
  5
14C0
100
AcDbEntity
  8
VHH-025
100
AcDbPolyline
 90
        2
 70
     0
 43
0.0
 10
122.388473
 20
-331.272172
 10
128.930265
 20
-331.217272
  0
LWPOLYLINE
  5
14C1
100
AcDbEntity
  8
VHH-025
100
AcDbPolyline
 90
        2
 70
     0
 43
0.0
 10
122.388473
 20
-331.272172
 10
115.84668
 20
-331.217272
  0
LWPOLYLINE
  5
14C2
100
AcDbEntity
  8
VHH-025
100
AcDbPolyline
 90
        2
 70
     0
 43
0.0
 10
115.84668
 20
-331.217272
 10
88.774512
 20
-330.152889
  0
LWPOLYLINE
  5
14C3
100
AcDbEntity
  8
VHH-025
100
AcDbPolyline
 90
        4
 70
     0
 43
0.0
 10
162.388473
 20
-332.247411
 10
162.388473
 20
-331.917643
 10
162.388473
 20
-331.439353
 10
162.388472
 20
-330.232757
  0
LWPOLYLINE
  5
14C4
100
AcDbEntity
  8
VHH-025
100
AcDbPolyline
 90
        2
 70
     0
 43
0.0
 10
162.388473
 20
-330.076085
 10
162.388473
 20
-312.144755
  0
LWPOLYLINE
  5
14C5
100
AcDbEntity
  8
VHH-025
100
AcDbPolyline
 90
        2
 70
     0
 43
0.0
 10
162.388472
 20
-330.232757
 10
162.388473
 20
-312.144755
  0
LWPOLYLINE
  5
14C6
100
AcDbEntity
  8
VHH-025
100
AcDbPolyline
 90
        2
 70
     0
 43
0.0
 10
109.642408
 20
-213.039073
 10
25.988473
 20
-213.031032
  0
LWPOLYLINE
  5
14C7
100
AcDbEntity
  8
VHH-025
100
AcDbPolyline
 90
        2
 70
     0
 43
0.0
 10
17.285575
 20
-218.833978
 10
17.259505
 20
-218.158028
  0
LWPOLYLINE
  5
14C8
100
AcDbEntity
  8
VHH-025
100
AcDbPolyline
 90
        3
 70
     0
 43
0.0
 10
25.988473
 20
-218.158028
 10
22.258473
 20
-218.158028
 10
19.267433
 20
-218.158028
  0
LWPOLYLINE
  5
14C9
100
AcDbEntity
  8
VHH-025
100
AcDbPolyline
 90
        7
 70
     0
 43
0.0
 10
19.267433
 20
-218.158028
 10
18.549637
 20
-218.158028
 10
18.223479
 20
-218.158028
 10
17.931091
 20
-218.158028
 10
17.68391
 20
-218.158028
 10
17.485624
 20
-218.158028
 10
17.259505
 20
-218.158028
  0
LWPOLYLINE
  5
14CA
100
AcDbEntity
  8
VHH-025
100
AcDbPolyline
 90
        2
 70
     0
 43
0.0
 10
25.988473
 20
-218.158028
 10
25.988473
 20
-213.031032
  0
LWPOLYLINE
  5
14CB
100
AcDbEntity
  8
VHH-025
100
AcDbPolyline
 90
        4
 70
     0
 43
0.0
 10
122.388473
 20
-213.038884
 10
119.174711
 20
-213.038968
 10
115.960949
 20
-213.039027
 10
109.642408
 20
-213.039073
  0
LWPOLYLINE
  5
14CC
100
AcDbEntity
  8
VHH-025
100
AcDbPolyline
 90
        4
 70
     0
 43
0.0
 10
135.134537
 20
-213.039073
 10
131.920775
 20
-213.039061
 10
128.707013
 20
-213.039025
 10
122.388473
 20
-213.038884
  0
INSERT
  5
14CD
100
AcDbEntity
  8
VHH-050
100
AcDbBlockReference
  2
A$C32063EEB
 10
-8.838839
 20
-8.838837
 30
0.0
  0
LWPOLYLINE
  5
14CE
100
AcDbEntity
  8
VHH-025
100
AcDbPolyline
 90
       17
 70
     0
 43
0.0
 10
162.88956
 20
-18.142877
 10
162.88956
 20
-18.107664
 10
162.88956
 20
-17.936785
 10
162.88956
 20
-17.659445
 10
162.88956
 20
-17.28616
 10
162.88956
 20
-16.831589
 10
162.88956
 20
-16.312901
 10
162.88956
 20
-15.750385
 10
162.88956
 20
-15.165356
 10
162.88956
 20
-14.580328
 10
162.88956
 20
-14.017812
 10
162.88956
 20
-13.499124
 10
162.88956
 20
-13.044553
 10
162.88956
 20
-12.671268
 10
162.88956
 20
-12.393928
 10
162.88956
 20
-12.223049
 10
162.88956
 20
-12.187836
  0
LWPOLYLINE
  5
14CF
100
AcDbEntity
  8
VHH-025
100
AcDbPolyline
 90
       17
 70
     0
 43
0.0
 10
161.88956
 20
-12.187836
 10
161.88956
 20
-12.223046
 10
161.88956
 20
-12.393918
 10
161.88956
 20
-12.671252
 10
161.88956
 20
-13.044528
 10
161.88956
 20
-13.499101
 10
161.88956
 20
-14.017787
 10
161.88956
 20
-14.580316
 10
161.88956
 20
-15.165356
 10
161.88956
 20
-15.750397
 10
161.88956
 20
-16.312926
 10
161.88956
 20
-16.831612
 10
161.88956
 20
-17.286185
 10
161.88956
 20
-17.659461
 10
161.88956
 20
-17.936795
 10
161.88956
 20
-18.107666
 10
161.88956
 20
-18.142877
  0
LINE
  5
14D0
100
AcDbEntity
  8
VHH-025
100
AcDbLine
 10
34.88956
 20
-12.697285
 30
0.0
 11
34.88956
 21
-17.633427
 31
0.0
  0
ARC
  5
14D1
100
AcDbEntity
  8
VHH-025
100
AcDbCircle
 10
2.985956
 20
-16.24681
 30
0.0
 40
2.0
100
AcDbArc
 50
113.797726
 51
166.976183
  0
LWPOLYLINE
  5
14D2
100
AcDbEntity
  8
VHH-025
100
AcDbPolyline
 90
       17
 70
     0
 43
0.0
 10
82.88956
 20
-18.142877
 10
82.88956
 20
-18.107666
 10
82.88956
 20
-17.936795
 10
82.88956
 20
-17.659461
 10
82.88956
 20
-17.286185
 10
82.88956
 20
-16.831612
 10
82.88956
 20
-16.312926
 10
82.88956
 20
-15.750397
 10
82.88956
 20
-15.165356
 10
82.88956
 20
-14.580316
 10
82.88956
 20
-14.017787
 10
82.88956
 20
-13.499101
 10
82.88956
 20
-13.044528
 10
82.88956
 20
-12.671252
 10
82.88956
 20
-12.393918
 10
82.88956
 20
-12.223046
 10
82.88956
 20
-12.187836
  0
LWPOLYLINE
  5
14D3
100
AcDbEntity
  8
VHH-025
100
AcDbPolyline
 90
       17
 70
     0
 43
0.0
 10
81.88956
 20
-12.187836
 10
81.88956
 20
-12.223049
 10
81.88956
 20
-12.393928
 10
81.88956
 20
-12.671268
 10
81.88956
 20
-13.044553
 10
81.88956
 20
-13.499124
 10
81.88956
 20
-14.017812
 10
81.88956
 20
-14.580328
 10
81.88956
 20
-15.165356
 10
81.88956
 20
-15.750385
 10
81.88956
 20
-16.312901
 10
81.88956
 20
-16.831589
 10
81.88956
 20
-17.28616
 10
81.88956
 20
-17.659445
 10
81.88956
 20
-17.936785
 10
81.88956
 20
-18.107664
 10
81.88956
 20
-18.142877
  0
LWPOLYLINE
  5
14D4
100
AcDbEntity
  8
VHH-025
100
AcDbPolyline
 90
        2
 70
     0
 43
0.0
 10
82.88956
 20
-19.545375
 10
122.38956
 20
-19.665356
  0
LWPOLYLINE
  5
14D5
100
AcDbEntity
  8
VHH-025
100
AcDbPolyline
 90
        2
 70
     0
 43
0.0
 10
36.374051
 20
-19.097699
 10
81.88956
 20
-19.539228
  0
ELLIPSE
  5
14D6
100
AcDbEntity
  8
VHH-025
100
AcDbEllipse
 10
2.479094
 20
-28.0
 30
0.0
 11
0.0000000000001328
 21
15.00000158390118
 31
0.0
210
0.0
220
0.0
230
-1.0
 40
0.165303
 41
3.762083072775073
 42
5.662694887994195
  0
LWPOLYLINE
  5
14D7
100
AcDbEntity
  8
VHH-025
100
AcDbPolyline
 90
        5
 70
     0
 43
0.0
 10
36.374051
 20
-19.097699
 10
35.775413
 20
-18.970563
 10
35.294542
 20
-18.638239
 10
34.990014
 20
-18.164663
 10
34.88956
 20
-17.633427
  0
LINE
  5
14D8
100
AcDbEntity
  8
VHH-025
100
AcDbLine
 10
2.178938
 20
-41.583142
 30
0.0
 11
5.391735
 21
-43.000002
 31
0.0
  0
ARC
  5
14D9
100
AcDbEntity
  8
VHH-025
100
AcDbCircle
 10
2.985956
 20
-39.75319
 30
0.0
 40
2.0
100
AcDbArc
 50
193.023817
 51
246.202274
  0
LWPOLYLINE
  5
14DA
100
AcDbEntity
  8
VHH-025
100
AcDbPolyline
 90
        2
 70
     0
 43
0.0
 10
82.88956
 20
-19.545375
 10
82.88956
 20
-18.142877
  0
LWPOLYLINE
  5
14DB
100
AcDbEntity
  8
VHH-025
100
AcDbPolyline
 90
        2
 70
     0
 43
0.0
 10
81.88956
 20
-18.142877
 10
81.88956
 20
-19.539228
  0
LINE
  5
14DC
100
AcDbEntity
  8
VHH-025
100
AcDbLine
 10
81.88956
 20
-19.045356
 30
0.0
 11
82.88956
 21
-19.045356
 31
0.0
  0
LWPOLYLINE
  5
14DD
100
AcDbEntity
  8
VHH-025
100
AcDbPolyline
 90
        2
 70
     0
 43
0.0
 10
122.38956
 20
-19.665356
 10
161.88956
 20
-19.545375
  0
ARC
  5
14DE
100
AcDbEntity
  8
VHH-025
100
AcDbCircle
 10
126.427211
 20
-54.506583
 30
0.0
 40
0.5
100
AcDbArc
 50
330.0
 51
60.0
  0
ARC
  5
14DF
100
AcDbEntity
  8
VHH-025
100
AcDbCircle
 10
125.128173
 20
-53.756583
 30
0.0
 40
0.5
100
AcDbArc
 50
60.0
 51
150.0
  0
ARC
  5
14E0
100
AcDbEntity
  8
VHH-025
100
AcDbCircle
 10
118.351909
 20
-65.493417
 30
0.0
 40
0.5
100
AcDbArc
 50
150.0
 51
240.0
  0
ARC
  5
14E1
100
AcDbEntity
  8
VHH-025
100
AcDbCircle
 10
119.650947
 20
-66.243417
 30
0.0
 40
0.5
100
AcDbArc
 50
240.0
 51
330.0
  0
LINE
  5
14E2
100
AcDbEntity
  8
VHH-025
100
AcDbLine
 10
119.400947
 20
-66.67643
 30
0.0
 11
118.101909
 21
-65.92643
 31
0.0
  0
LINE
  5
14E3
100
AcDbEntity
  8
VHH-025
100
AcDbLine
 10
126.677211
 20
-54.07357
 30
0.0
 11
125.378173
 21
-53.32357
 31
0.0
  0
LINE
  5
14E4
100
AcDbEntity
  8
VHH-025
100
AcDbLine
 10
124.69516
 20
-53.506583
 30
0.0
 11
117.918896
 21
-65.243417
 31
0.0
  0
LINE
  5
14E5
100
AcDbEntity
  8
VHH-025
100
AcDbLine
 10
126.860224
 20
-54.756583
 30
0.0
 11
120.083959
 21
-66.493417
 31
0.0
  0
CIRCLE
  5
14E6
100
AcDbEntity
  8
VHH-025
100
AcDbCircle
 10
122.38956
 20
-60.0
 30
0.0
 40
10.0
  0
CIRCLE
  5
14E7
100
AcDbEntity
  8
VHH-025
100
AcDbCircle
 10
122.38956
 20
-60.0
 30
0.0
 40
12.0
  0
LWPOLYLINE
  5
14E8
100
AcDbEntity
  8
VHH-025
100
AcDbPolyline
 90
        2
 70
     0
 43
0.0
 10
162.88956
 20
-19.539228
 10
162.88956
 20
-18.142877
  0
LWPOLYLINE
  5
14E9
100
AcDbEntity
  8
VHH-025
100
AcDbPolyline
 90
        2
 70
     0
 43
0.0
 10
161.88956
 20
-18.142877
 10
161.88956
 20
-19.545375
  0
LINE
  5
14EA
100
AcDbEntity
  8
VHH-025
100
AcDbLine
 10
161.88956
 20
-19.045356
 30
0.0
 11
162.88956
 21
-19.045356
 31
0.0
  0
LWPOLYLINE
  5
14EB
100
AcDbEntity
  8
VHH-025
100
AcDbPolyline
 90
        2
 70
     0
 43
0.0
 10
122.38956
 20
-10.665356
 10
82.88956
 20
-10.785337
  0
LWPOLYLINE
  5
14EC
100
AcDbEntity
  8
VHH-025
100
AcDbPolyline
 90
        2
 70
     0
 43
0.0
 10
81.88956
 20
-10.791485
 10
36.374051
 20
-11.233013
  0
LWPOLYLINE
  5
14ED
100
AcDbEntity
  8
VHH-025
100
AcDbPolyline
 90
        5
 70
     0
 43
0.0
 10
34.88956
 20
-12.697285
 10
34.999581
 20
-12.142364
 10
35.308749
 20
-11.677938
 10
35.779581
 20
-11.358353
 10
36.374051
 20
-11.233013
  0
LINE
  5
14EE
100
AcDbEntity
  8
VHH-025
100
AcDbLine
 10
2.178938
 20
-14.416858
 30
0.0
 11
5.391735
 21
-12.999998
 31
0.0
  0
LWPOLYLINE
  5
14EF
100
AcDbEntity
  8
VHH-025
100
AcDbPolyline
 90
        2
 70
     0
 43
0.0
 10
82.88956
 20
-12.187836
 10
82.88956
 20
-10.785337
  0
LWPOLYLINE
  5
14F0
100
AcDbEntity
  8
VHH-025
100
AcDbPolyline
 90
        2
 70
     0
 43
0.0
 10
81.88956
 20
-10.791485
 10
81.88956
 20
-12.187836
  0
LINE
  5
14F1
100
AcDbEntity
  8
VHH-025
100
AcDbLine
 10
82.88956
 20
-11.285356
 30
0.0
 11
81.88956
 21
-11.285356
 31
0.0
  0
LWPOLYLINE
  5
14F2
100
AcDbEntity
  8
VHH-025
100
AcDbPolyline
 90
        2
 70
     0
 43
0.0
 10
161.88956
 20
-10.785337
 10
122.38956
 20
-10.665356
  0
LWPOLYLINE
  5
14F3
100
AcDbEntity
  8
VHH-025
100
AcDbPolyline
 90
        2
 70
     0
 43
0.0
 10
162.88956
 20
-12.187836
 10
162.88956
 20
-10.791485
  0
LWPOLYLINE
  5
14F4
100
AcDbEntity
  8
VHH-025
100
AcDbPolyline
 90
        2
 70
     0
 43
0.0
 10
161.88956
 20
-10.785337
 10
161.88956
 20
-12.187836
  0
LINE
  5
14F5
100
AcDbEntity
  8
VHH-025
100
AcDbLine
 10
162.88956
 20
-11.285356
 30
0.0
 11
161.88956
 21
-11.285356
 31
0.0
  0
LWPOLYLINE
  5
14F6
100
AcDbEntity
  8
VHH-025
100
AcDbPolyline
 90
        5
 70
     0
 43
0.0
 10
622.390647
 20
-332.247411
 10
622.390647
 20
-338.773612
 10
622.390647
 20
-344.743865
 10
622.390647
 20
-350.166704
 10
622.390647
 20
-355.058505
  0
LWPOLYLINE
  5
14F7
100
AcDbEntity
  8
VHH-025
100
AcDbPolyline
 90
       22
 70
     0
 43
0.0
 10
678.991912
 20
-349.704212
 10
678.27808
 20
-344.897253
 10
677.934182
 20
-342.177282
 10
677.765439
 20
-340.735432
 10
677.681864
 20
-339.993675
 10
677.640275
 20
-339.617543
 10
677.61953
 20
-339.428157
 10
677.598818
 20
-339.237889
 10
677.435851
 20
-337.699691
 10
677.357282
 20
-336.931169
 10
677.318736
 20
-336.546954
 10
677.299653
 20
-336.354717
 10
677.29016
 20
-336.258546
 10
677.280699
 20
-336.162332
 10
677.129113
 20
-334.551211
 10
677.055014
 20
-333.712936
 10
677.01839
 20
-333.285478
 10
677.000185
 20
-333.069648
 10
676.99111
 20
-332.961205
 10
676.986579
 20
-332.906851
 10
676.982052
 20
-332.852409
 10
676.460386
 20
-325.438479
  0
LWPOLYLINE
  5
14F8
100
AcDbEntity
  8
VHH-025
100
AcDbPolyline
 90
        5
 70
     0
 43
0.0
 10
542.390647
 20
-355.058505
 10
542.390647
 20
-350.166299
 10
542.390647
 20
-344.743329
 10
542.390647
 20
-338.773094
 10
542.390647
 20
-332.247411
  0
LWPOLYLINE
  5
14F9
100
AcDbEntity
  8
VHH-025
100
AcDbPolyline
 90
        3
 70
     0
 43
0.0
 10
528.303798
 20
-339.418526
 10
528.248143
 20
-345.040784
 10
528.279751
 20
-350.151434
  0
LWPOLYLINE
  5
14FA
100
AcDbEntity
  8
VHH-025
100
AcDbPolyline
 90
        3
 70
     0
 43
0.0
 10
527.608563
 20
-339.336903
 10
527.553551
 20
-344.955384
 10
527.585766
 20
-350.062475
  0
LWPOLYLINE
  5
14FB
100
AcDbEntity
  8
VHH-025
100
AcDbPolyline
 90
       15
 70
     0
 43
0.0
 10
524.496078
 20
-341.617936
 10
524.931901
 20
-341.687478
 10
525.351071
 20
-341.782319
 10
526.072507
 20
-342.031396
 10
526.349133
 20
-342.176727
 10
526.553615
 20
-342.327961
 10
526.679665
 20
-342.480577
 10
526.721189
 20
-342.627072
 10
526.677144
 20
-342.763369
 10
526.549285
 20
-342.883097
 10
526.34256
 20
-342.982012
 10
526.064017
 20
-343.056478
 10
525.726775
 20
-343.10312
 10
525.340069
 20
-343.120619
 10
524.484803
 20
-343.065665
  0
LWPOLYLINE
  5
14FC
100
AcDbEntity
  8
VHH-025
100
AcDbPolyline
 90
       16
 70
     0
 43
0.0
 10
524.484803
 20
-343.065665
 10
524.050233
 20
-342.995614
 10
523.631382
 20
-342.900155
 10
523.247521
 20
-342.783823
 10
522.909298
 20
-342.649847
 10
522.633374
 20
-342.504812
 10
522.427864
 20
-342.353095
 10
522.259981
 20
-342.054973
 10
522.303892
 20
-341.91927
 10
522.43126
 20
-341.800518
 10
522.638534
 20
-341.701913
 10
522.916206
 20
-341.628109
 10
523.254471
 20
-341.581513
 10
523.641078
 20
-341.563959
 10
524.058339
 20
-341.576132
 10
524.496078
 20
-341.617936
  0
LWPOLYLINE
  5
14FD
100
AcDbEntity
  8
VHH-025
100
AcDbPolyline
 90
        3
 70
     0
 43
0.0
 10
682.685127
 20
-345.242635
 10
685.482313
 20
-310.20501
 10
686.930266
 20
-288.996634
  0
LWPOLYLINE
  5
14FE
100
AcDbEntity
  8
VHH-025
100
AcDbPolyline
 90
       22
 70
     0
 43
0.0
 10
488.320908
 20
-325.438479
 10
488.070088
 20
-329.311101
 10
487.937146
 20
-331.122235
 10
487.868811
 20
-331.997309
 10
487.834181
 20
-332.427339
 10
487.81675
 20
-332.640492
 10
487.808006
 20
-332.746605
 10
487.803626
 20
-332.799545
 10
487.799242
 20
-332.852409
 10
487.652181
 20
-334.551211
 10
487.576952
 20
-335.367613
 10
487.538915
 20
-335.767709
 10
487.519791
 20
-335.965708
 10
487.510202
 20
-336.064189
 10
487.500595
 20
-336.162332
 10
487.345443
 20
-337.699691
 10
487.264931
 20
-338.468856
 10
487.223947
 20
-338.853427
 10
487.203272
 20
-339.045676
 10
487.182477
 20
-339.237889
 10
486.503228
 20
-344.897491
 10
485.789382
 20
-349.704212
  0
LWPOLYLINE
  5
14FF
100
AcDbEntity
  8
VHH-025
100
AcDbPolyline
 90
       22
 70
     0
 43
0.0
 10
448.991912
 20
-349.704212
 10
448.27808
 20
-344.897253
 10
447.934182
 20
-342.177282
 10
447.765439
 20
-340.735432
 10
447.681864
 20
-339.993675
 10
447.640275
 20
-339.617543
 10
447.61953
 20
-339.428157
 10
447.598818
 20
-339.237889
 10
447.435851
 20
-337.699691
 10
447.357282
 20
-336.931169
 10
447.318736
 20
-336.546954
 10
447.299653
 20
-336.354717
 10
447.29016
 20
-336.258546
 10
447.280699
 20
-336.162332
 10
447.129113
 20
-334.551211
 10
447.055014
 20
-333.712936
 10
447.01839
 20
-333.285478
 10
447.000185
 20
-333.069648
 10
446.99111
 20
-332.961205
 10
446.986579
 20
-332.906851
 10
446.982052
 20
-332.852409
 10
446.460386
 20
-325.438479
  0
LWPOLYLINE
  5
1500
100
AcDbEntity
  8
VHH-025
100
AcDbPolyline
 90
        4
 70
     0
 43
0.0
 10
502.634248
 20
-346.077599
 10
502.575124
 20
-341.129313
 10
502.575804
 20
-338.476935
 10
502.601191
 20
-335.679996
  0
LWPOLYLINE
  5
1501
100
AcDbEntity
  8
VHH-025
100
AcDbPolyline
 90
        4
 70
     0
 43
0.0
 10
503.172373
 20
-335.352316
 10
503.147406
 20
-338.094795
 10
503.146371
 20
-340.74926
 10
503.204872
 20
-345.701225
  0
LWPOLYLINE
  5
1502
100
AcDbEntity
  8
VHH-025
100
AcDbPolyline
 90
        4
 70
     0
 43
0.0
 10
521.132042
 20
-348.697835
 10
521.09373
 20
-343.626757
 10
521.106163
 20
-340.905496
 10
521.142281
 20
-338.046001
  0
LWPOLYLINE
  5
1503
100
AcDbEntity
  8
VHH-025
100
AcDbPolyline
 90
        4
 70
     0
 43
0.0
 10
521.563427
 20
-338.240329
 10
521.522754
 20
-341.27995
 10
521.508591
 20
-344.164923
 10
521.551135
 20
-349.518228
  0
LWPOLYLINE
  5
1504
100
AcDbEntity
  8
VHH-025
100
AcDbPolyline
 90
        5
 70
     0
 43
0.0
 10
392.390647
 20
-332.247411
 10
392.390647
 20
-338.773612
 10
392.390647
 20
-344.743865
 10
392.390647
 20
-350.166704
 10
392.390647
 20
-355.058505
  0
LINE
  5
1505
100
AcDbEntity
  8
VHH-025
100
AcDbLine
 10
466.896412
 20
-332.27061
 30
0.0
 11
466.896412
 21
-478.164668
 31
0.0
  0
LINE
  5
1506
100
AcDbEntity
  8
VHH-025
100
AcDbLine
 10
461.389561
 20
-471.110372
 30
0.0
 11
461.389561
 21
-332.27926
 31
0.0
  0
LINE
  5
1507
100
AcDbEntity
  8
VHH-025
100
AcDbLine
 10
467.228112
 20
-453.107827
 30
0.0
 11
467.228112
 21
-331.93891
 31
0.0
  0
LWPOLYLINE
  5
1508
100
AcDbEntity
  8
VHH-025
100
AcDbPolyline
 90
       16
 70
     0
 43
0.0
 10
294.484803
 20
-343.065665
 10
294.050233
 20
-342.995614
 10
293.631382
 20
-342.900155
 10
293.247521
 20
-342.783823
 10
292.909298
 20
-342.649847
 10
292.633374
 20
-342.504812
 10
292.427864
 20
-342.353095
 10
292.259981
 20
-342.054973
 10
292.303892
 20
-341.91927
 10
292.43126
 20
-341.800518
 10
292.638534
 20
-341.701913
 10
292.916206
 20
-341.628109
 10
293.254471
 20
-341.581513
 10
293.641078
 20
-341.563959
 10
294.058339
 20
-341.576132
 10
294.496078
 20
-341.617936
  0
LWPOLYLINE
  5
1509
100
AcDbEntity
  8
VHH-025
100
AcDbPolyline
 90
       15
 70
     0
 43
0.0
 10
294.496078
 20
-341.617936
 10
294.931901
 20
-341.687478
 10
295.351071
 20
-341.782319
 10
296.072507
 20
-342.031396
 10
296.349133
 20
-342.176727
 10
296.553615
 20
-342.327961
 10
296.679665
 20
-342.480577
 10
296.721189
 20
-342.627072
 10
296.677144
 20
-342.763369
 10
296.549285
 20
-342.883097
 10
296.34256
 20
-342.982012
 10
296.064017
 20
-343.056478
 10
295.726775
 20
-343.10312
 10
295.340069
 20
-343.120619
 10
294.484803
 20
-343.065665
  0
LWPOLYLINE
  5
150A
100
AcDbEntity
  8
VHH-025
100
AcDbPolyline
 90
        4
 70
     0
 43
0.0
 10
291.563427
 20
-338.240329
 10
291.522754
 20
-341.27995
 10
291.508591
 20
-344.164923
 10
291.551135
 20
-349.518228
  0
LWPOLYLINE
  5
150B
100
AcDbEntity
  8
VHH-025
100
AcDbPolyline
 90
        4
 70
     0
 43
0.0
 10
291.132042
 20
-348.697835
 10
291.09373
 20
-343.626757
 10
291.106163
 20
-340.905496
 10
291.142281
 20
-338.046001
  0
LWPOLYLINE
  5
150C
100
AcDbEntity
  8
VHH-025
100
AcDbPolyline
 90
        3
 70
     0
 43
0.0
 10
297.608563
 20
-339.336903
 10
297.553551
 20
-344.955384
 10
297.585766
 20
-350.062475
  0
LWPOLYLINE
  5
150D
100
AcDbEntity
  8
VHH-025
100
AcDbPolyline
 90
        3
 70
     0
 43
0.0
 10
298.303798
 20
-339.418526
 10
298.248143
 20
-345.040784
 10
298.279751
 20
-350.151434
  0
LWPOLYLINE
  5
150E
100
AcDbEntity
  8
VHH-025
100
AcDbPolyline
 90
        5
 70
     0
 43
0.0
 10
312.390647
 20
-355.058505
 10
312.390647
 20
-350.166299
 10
312.390647
 20
-344.743329
 10
312.390647
 20
-338.773094
 10
312.390647
 20
-332.247411
  0
LWPOLYLINE
  5
150F
100
AcDbEntity
  8
VHH-025
100
AcDbPolyline
 90
        4
 70
     0
 43
0.0
 10
273.172373
 20
-335.352316
 10
273.147406
 20
-338.094795
 10
273.146371
 20
-340.74926
 10
273.204872
 20
-345.701225
  0
LWPOLYLINE
  5
1510
100
AcDbEntity
  8
VHH-025
100
AcDbPolyline
 90
        4
 70
     0
 43
0.0
 10
272.634248
 20
-346.077599
 10
272.575124
 20
-341.129313
 10
272.575804
 20
-338.476935
 10
272.601191
 20
-335.679996
  0
LWPOLYLINE
  5
1511
100
AcDbEntity
  8
VHH-025
100
AcDbPolyline
 90
       16
 70
     0
 43
0.0
 10
180.294317
 20
-343.065665
 10
180.728886
 20
-342.995614
 10
181.147738
 20
-342.900155
 10
181.531599
 20
-342.783823
 10
181.869822
 20
-342.649847
 10
182.145746
 20
-342.504812
 10
182.351255
 20
-342.353095
 10
182.519138
 20
-342.054973
 10
182.475228
 20
-341.91927
 10
182.34786
 20
-341.800518
 10
182.140586
 20
-341.701913
 10
181.862913
 20
-341.628109
 10
181.524649
 20
-341.581513
 10
181.138042
 20
-341.563959
 10
180.720781
 20
-341.576132
 10
180.283042
 20
-341.617936
  0
LWPOLYLINE
  5
1512
100
AcDbEntity
  8
VHH-025
100
AcDbPolyline
 90
       15
 70
     0
 43
0.0
 10
180.283042
 20
-341.617936
 10
179.847218
 20
-341.687478
 10
179.428049
 20
-341.782319
 10
178.706613
 20
-342.031396
 10
178.429987
 20
-342.176727
 10
178.225504
 20
-342.327961
 10
178.099455
 20
-342.480577
 10
178.05793
 20
-342.627072
 10
178.101976
 20
-342.763369
 10
178.229835
 20
-342.883097
 10
178.436559
 20
-342.982012
 10
178.715102
 20
-343.056478
 10
179.052345
 20
-343.10312
 10
179.43905
 20
-343.120619
 10
180.294317
 20
-343.065665
  0
LWPOLYLINE
  5
1513
100
AcDbEntity
  8
VHH-025
100
AcDbPolyline
 90
        4
 70
     0
 43
0.0
 10
183.215693
 20
-338.240329
 10
183.256366
 20
-341.27995
 10
183.270529
 20
-344.164923
 10
183.227985
 20
-349.518228
  0
LWPOLYLINE
  5
1514
100
AcDbEntity
  8
VHH-025
100
AcDbPolyline
 90
        4
 70
     0
 43
0.0
 10
183.647078
 20
-348.697835
 10
183.68539
 20
-343.626757
 10
183.672956
 20
-340.905496
 10
183.636838
 20
-338.046001
  0
LWPOLYLINE
  5
1515
100
AcDbEntity
  8
VHH-025
100
AcDbPolyline
 90
        3
 70
     0
 43
0.0
 10
177.170556
 20
-339.336903
 10
177.225569
 20
-344.955384
 10
177.193353
 20
-350.062475
  0
LWPOLYLINE
  5
1516
100
AcDbEntity
  8
VHH-025
100
AcDbPolyline
 90
        3
 70
     0
 43
0.0
 10
176.475322
 20
-339.418526
 10
176.530976
 20
-345.040784
 10
176.499368
 20
-350.151434
  0
LWPOLYLINE
  5
1517
100
AcDbEntity
  8
VHH-025
100
AcDbPolyline
 90
       22
 70
     0
 43
0.0
 10
216.458211
 20
-325.438479
 10
216.709032
 20
-329.311101
 10
216.841973
 20
-331.122235
 10
216.910308
 20
-331.997309
 10
216.944939
 20
-332.427339
 10
216.96237
 20
-332.640492
 10
216.971114
 20
-332.746605
 10
216.975493
 20
-332.799545
 10
216.979877
 20
-332.852409
 10
217.126939
 20
-334.551211
 10
217.202168
 20
-335.367613
 10
217.240204
 20
-335.767709
 10
217.259329
 20
-335.965708
 10
217.268918
 20
-336.064189
 10
217.278524
 20
-336.162332
 10
217.433677
 20
-337.699691
 10
217.514188
 20
-338.468856
 10
217.555173
 20
-338.853427
 10
217.575847
 20
-339.045676
 10
217.596643
 20
-339.237889
 10
218.275892
 20
-344.897491
 10
218.989737
 20
-349.704212
  0
LWPOLYLINE
  5
1518
100
AcDbEntity
  8
VHH-025
100
AcDbPolyline
 90
        4
 70
     0
 43
0.0
 10
201.606746
 20
-335.352316
 10
201.631713
 20
-338.094795
 10
201.632748
 20
-340.74926
 10
201.574248
 20
-345.701225
  0
LWPOLYLINE
  5
1519
100
AcDbEntity
  8
VHH-025
100
AcDbPolyline
 90
        4
 70
     0
 43
0.0
 10
202.144871
 20
-346.077599
 10
202.203995
 20
-341.129313
 10
202.203316
 20
-338.476935
 10
202.177929
 20
-335.679996
  0
LWPOLYLINE
  5
151A
100
AcDbEntity
  8
VHH-025
100
AcDbPolyline
 90
       22
 70
     0
 43
0.0
 10
258.320908
 20
-325.438479
 10
258.070088
 20
-329.311101
 10
257.937146
 20
-331.122235
 10
257.868811
 20
-331.997309
 10
257.834181
 20
-332.427339
 10
257.81675
 20
-332.640492
 10
257.808006
 20
-332.746605
 10
257.803626
 20
-332.799545
 10
257.799242
 20
-332.852409
 10
257.652181
 20
-334.551211
 10
257.576952
 20
-335.367613
 10
257.538915
 20
-335.767709
 10
257.519791
 20
-335.965708
 10
257.510202
 20
-336.064189
 10
257.500595
 20
-336.162332
 10
257.345443
 20
-337.699691
 10
257.264931
 20
-338.468856
 10
257.223947
 20
-338.853427
 10
257.203272
 20
-339.045676
 10
257.182477
 20
-339.237889
 10
256.503228
 20
-344.897491
 10
255.789382
 20
-349.704212
  0
LINE
  5
151B
100
AcDbEntity
  8
VHH-025
100
AcDbLine
 10
237.882701
 20
-478.164668
 30
0.0
 11
237.882701
 21
-332.27061
 31
0.0
  0
LINE
  5
151C
100
AcDbEntity
  8
VHH-025
100
AcDbLine
 10
243.389559
 20
-332.27926
 30
0.0
 11
243.389559
 21
-471.110372
 31
0.0
  0
LINE
  5
151D
100
AcDbEntity
  8
VHH-025
100
AcDbLine
 10
237.551009
 20
-331.93891
 30
0.0
 11
237.551009
 21
-453.107827
 31
0.0
  0
LWPOLYLINE
  5
151E
100
AcDbEntity
  8
VHH-025
100
AcDbPolyline
 90
        3
 70
     0
 43
0.0
 10
226.928091
 20
-288.996634
 10
225.480139
 20
-310.20501
 10
222.682952
 20
-345.242635
  0
LWPOLYLINE
  5
151F
100
AcDbEntity
  8
VHH-025
100
AcDbPolyline
 90
        3
 70
     0
 43
0.0
 10
247.851028
 20
-288.996634
 10
249.298981
 20
-310.20501
 10
252.096167
 20
-345.242635
  0
LWPOLYLINE
  5
1520
100
AcDbEntity
  8
VHH-025
100
AcDbPolyline
 90
        3
 70
     0
 43
0.0
 10
477.851028
 20
-288.996634
 10
479.298981
 20
-310.20501
 10
482.096167
 20
-345.242635
  0
LWPOLYLINE
  5
1521
100
AcDbEntity
  8
VHH-025
100
AcDbPolyline
 90
        3
 70
     0
 43
0.0
 10
452.685127
 20
-345.242635
 10
455.482313
 20
-310.20501
 10
456.930266
 20
-288.996634
  0
LWPOLYLINE
  5
1649
100
AcDbEntity
  8
VHH-025
100
AcDbPolyline
 90
        9
 70
     0
 43
0.0
 10
485.789382
 20
-349.704212
 10
509.404938
 20
-355.167567
 10
533.47562
 20
-359.119603
 10
557.855109
 20
-361.510997
 10
582.390647
 20
-362.311523
 10
606.926185
 20
-361.510997
 10
631.305674
 20
-359.119603
 10
655.376357
 20
-355.167567
 10
678.991912
 20
-349.704212
  0
LWPOLYLINE
  5
164A
100
AcDbEntity
  8
VHH-025
100
AcDbPolyline
 90
        2
 70
     0
 43
0.0
 10
526.602462
 20
-350.409728
 10
504.312671
 20
-346.856472
  0
LWPOLYLINE
  5
174D
100
AcDbEntity
  8
VHH-025
100
AcDbPolyline
 90
       13
 70
     0
 43
0.0
 10
384.738563
 20
-357.785829
 10
376.647374
 20
-358.417335
 10
372.610252
 20
-358.664714
 10
370.594121
 20
-358.771407
 10
369.586702
 20
-358.820516
 10
368.579727
 20
-358.866807
 10
352.389292
 20
-359.227552
 10
344.298126
 20
-359.137431
 10
340.249308
 20
-359.024677
 10
338.224393
 20
-358.951346
 10
337.211847
 20
-358.910439
 10
336.199257
 20
-358.866704
 10
320.042731
 20
-357.785829
  0
LWPOLYLINE
  5
174E
100
AcDbEntity
  8
VHH-025
100
AcDbPolyline
 90
        9
 70
     0
 43
0.0
 10
255.789382
 20
-364.406219
 10
279.404938
 20
-369.869575
 10
303.47562
 20
-373.821611
 10
327.855109
 20
-376.213005
 10
352.390647
 20
-377.01353
 10
376.926185
 20
-376.213005
 10
401.305674
 20
-373.821611
 10
425.376357
 20
-369.869575
 10
448.991912
 20
-364.406219
  0
LWPOLYLINE
  5
174F
100
AcDbEntity
  8
VHH-025
100
AcDbPolyline
 90
        9
 70
     0
 43
0.0
 10
255.789382
 20
-349.704212
 10
279.404938
 20
-355.167567
 10
303.47562
 20
-359.119603
 10
327.855109
 20
-361.510997
 10
352.390647
 20
-362.311523
 10
376.926185
 20
-361.510997
 10
401.305674
 20
-359.119603
 10
425.376357
 20
-355.167567
 10
448.991912
 20
-349.704212
  0
LWPOLYLINE
  5
1750
100
AcDbEntity
  8
VHH-025
100
AcDbPolyline
 90
       16
 70
   128
 43
0.0
 10
466.197421
 20
-481.149772
 10
461.161112
 20
-482.653538
 10
449.58247
 20
-485.832656
 10
437.911255
 20
-488.652988
 10
422.092875
 20
-491.870912
 10
406.126713
 20
-494.43161
 10
390.054294
 20
-496.331038
 10
373.917152
 20
-497.56516
 10
357.756813
 20
-498.129936
 10
341.61481
 20
-498.021329
 10
324.345975
 20
-497.157628
 10
307.124009
 20
-495.52715
 10
289.999907
 20
-493.134709
 10
272.688543
 20
-489.917198
 10
255.531584
 20
-485.918125
 10
238.5817
 20
-481.149772
  0
ARC
  5
1751
100
AcDbEntity
  8
VHH-025
100
AcDbCircle
 10
352.38956
 20
-109.167005
 30
0.0
 40
378.0
100
AcDbArc
 50
253.240216
 51
286.759784
  0
ARC
  5
1752
100
AcDbEntity
  8
VHH-025
100
AcDbCircle
 10
352.38956
 20
-109.167005
 30
0.0
 40
400.0
100
AcDbArc
 50
253.39903
 51
286.60097
  0
ARC
  5
1753
100
AcDbEntity
  8
VHH-025
100
AcDbCircle
 10
352.395013
 20
-436.896289
 30
0.0
 40
16.8718
100
AcDbArc
 50
310.861473
 51
229.138527
  0
ARC
  5
1754
100
AcDbEntity
  8
VHH-025
100
AcDbCircle
 10
352.395013
 20
-436.896289
 30
0.0
 40
14.916049
100
AcDbArc
 50
320.128096
 51
219.871904
  0
LWPOLYLINE
  5
1755
100
AcDbEntity
  8
VHH-025
100
AcDbPolyline
 90
        9
 70
     0
 43
0.0
 10
352.395013
 20
-479.933962
 10
350.064495
 20
-479.832581
 10
347.752023
 20
-479.529399
 10
345.47553
 20
-479.026607
 10
343.252625
 20
-478.328227
 10
340.623107
 20
-477.088044
 10
338.625105
 20
-475.380745
 10
337.780269
 20
-473.4856
 10
338.033821
 20
-471.922459
  0
LWPOLYLINE
  5
1756
100
AcDbEntity
  8
VHH-025
100
AcDbPolyline
 90
        9
 70
     0
 43
0.0
 10
342.986868
 20
-427.265796
 10
342.632159
 20
-427.265054
 10
342.737495
 20
-427.266103
 10
343.257396
 20
-427.266255
 10
344.204823
 20
-427.265802
 10
345.607034
 20
-427.265592
 10
347.490045
 20
-427.265745
 10
349.828775
 20
-427.26606
 10
352.395013
 20
-427.265796
  0
ARC
  5
1757
100
AcDbEntity
  8
VHH-025
100
AcDbCircle
 10
352.395013
 20
-434.608182
 30
0.0
 40
16.0
100
AcDbArc
 50
90.0
 51
158.746191
  0
LWPOLYLINE
  5
1758
100
AcDbEntity
  8
VHH-025
100
AcDbPolyline
 90
       14
 70
     0
 43
0.0
 10
338.033821
 20
-471.922459
 10
339.672702
 20
-468.498183
 10
340.674026
 20
-465.590764
 10
341.449826
 20
-462.096069
 10
341.86716
 20
-457.943052
 10
341.793087
 20
-453.060672
 10
340.732895
 20
-444.785448
 10
340.3231
 20
-442.628664
 10
339.952978
 20
-441.006656
 10
339.335118
 20
-439.059619
 10
338.88605
 20
-438.329635
 10
338.61251
 20
-438.202002
 10
338.521225
 20
-438.067848
 10
338.61251
 20
-437.337625
  0
LWPOLYLINE
  5
1759
100
AcDbEntity
  8
VHH-025
100
AcDbPolyline
 90
        8
 70
   128
 43
0.0
 10
237.523359
 20
-457.020417
 10
237.529819
 20
-456.785938
 10
237.535765
 20
-456.412783
 10
237.540965
 20
-455.915019
 10
237.545234
 20
-455.311416
 10
237.548401
 20
-454.62473
 10
237.550345
 20
-453.880851
 10
237.551009
 20
-453.107827
  0
LWPOLYLINE
  5
175A
100
AcDbEntity
  8
VHH-025
100
AcDbPolyline
 90
        5
 70
   128
 43
0.0
 10
238.107723
 20
-492.494101
 10
237.808448
 20
-492.345939
 10
237.574865
 20
-492.107513
 10
237.429661
 20
-491.80195
 10
237.389562
 20
-491.515795
  0
LWPOLYLINE
  5
175B
100
AcDbEntity
  8
VHH-025
100
AcDbPolyline
 90
        6
 70
   128
 43
0.0
 10
237.868664
 20
-480.211983
 10
237.874014
 20
-479.97124
 10
237.878372
 20
-479.542805
 10
237.881382
 20
-478.962185
 10
237.882679
 20
-478.273178
 10
237.882701
 20
-478.164668
  0
LWPOLYLINE
  5
175C
100
AcDbEntity
  8
VHH-025
100
AcDbPolyline
 90
        9
 70
   128
 43
0.0
 10
237.868664
 20
-480.211983
 10
237.881673
 20
-480.367789
 10
237.91982
 20
-480.519628
 10
237.982129
 20
-480.663633
 10
238.067013
 20
-480.796138
 10
238.172312
 20
-480.913764
 10
238.295344
 20
-481.013516
 10
238.432971
 20
-481.092861
 10
238.5817
 20
-481.149772
  0
LINE
  5
175D
100
AcDbEntity
  8
VHH-025
100
AcDbLine
 10
237.389562
 20
-460.279258
 30
0.0
 11
237.389562
 21
-491.515795
 31
0.0
  0
LINE
  5
175E
100
AcDbEntity
  8
VHH-025
100
AcDbLine
 10
237.389562
 20
-491.515795
 30
0.0
 11
237.868664
 21
-480.211983
 31
0.0
  0
LINE
  5
175F
100
AcDbEntity
  8
VHH-025
100
AcDbLine
 10
237.523359
 20
-457.020417
 30
0.0
 11
237.389562
 21
-460.279258
 31
0.0
  0
ARC
  5
1760
100
AcDbEntity
  8
VHH-025
100
AcDbCircle
 10
343.278002
 20
-456.289135
 30
0.0
 40
2.75
100
AcDbArc
 50
122.342265
 51
237.496876
  0
CIRCLE
  5
1761
100
AcDbEntity
  8
VHH-025
100
AcDbCircle
 10
330.336273
 20
-454.955699
 30
0.0
 40
2.75
  0
LWPOLYLINE
  5
1762
100
AcDbEntity
  8
VHH-025
100
AcDbPolyline
 90
        3
 70
     0
 43
0.0
 10
256.815793
 20
-364.642158
 10
279.404938
 20
-369.869575
 10
281.3922
 20
-370.195853
  0
LWPOLYLINE
  5
1763
100
AcDbEntity
  8
VHH-025
100
AcDbPolyline
 90
        6
 70
     0
 43
0.0
 10
178.176658
 20
-350.409728
 10
177.692184
 20
-350.470247
 10
177.389461
 20
-350.48035
 10
177.114806
 20
-350.465255
 10
176.696924
 20
-350.362793
 10
176.501549
 20
-350.177698
  0
LWPOLYLINE
  5
1764
100
AcDbEntity
  8
VHH-025
100
AcDbPolyline
 90
        2
 70
     0
 43
0.0
 10
183.647078
 20
-348.697835
 10
183.648588
 20
-348.716204
  0
LWPOLYLINE
  5
1765
100
AcDbEntity
  8
VHH-025
100
AcDbPolyline
 90
        4
 70
     0
 43
0.0
 10
180.669268
 20
-346.029954
 10
180.370052
 20
-346.069792
 10
180.148165
 20
-346.099198
 10
179.926261
 20
-346.128489
  0
LWPOLYLINE
  5
1766
100
AcDbEntity
  8
VHH-025
100
AcDbPolyline
 90
        2
 70
     0
 43
0.0
 10
180.661813
 20
-347.36771
 10
180.669268
 20
-346.029954
  0
LWPOLYLINE
  5
1767
100
AcDbEntity
  8
VHH-025
100
AcDbPolyline
 90
        4
 70
     0
 43
0.0
 10
179.91899
 20
-347.467319
 10
180.218753
 20
-347.427281
 10
180.440292
 20
-347.397553
 10
180.661813
 20
-347.36771
  0
LWPOLYLINE
  5
1768
100
AcDbEntity
  8
VHH-025
100
AcDbPolyline
 90
        2
 70
     0
 43
0.0
 10
179.926261
 20
-346.128489
 10
179.91899
 20
-347.467319
  0
LWPOLYLINE
  5
1769
100
AcDbEntity
  8
VHH-025
100
AcDbPolyline
 90
        2
 70
     0
 43
0.0
 10
177.193353
 20
-350.062475
 10
177.194633
 20
-350.077904
  0
LWPOLYLINE
  5
176A
100
AcDbEntity
  8
VHH-025
100
AcDbPolyline
 90
        2
 70
     0
 43
0.0
 10
176.499368
 20
-350.151434
 10
176.501549
 20
-350.177698
  0
LWPOLYLINE
  5
176B
100
AcDbEntity
  8
VHH-025
100
AcDbPolyline
 90
        2
 70
     0
 43
0.0
 10
200.389437
 20
-346.250771
 10
184.827369
 20
-348.858566
  0
LWPOLYLINE
  5
176C
100
AcDbEntity
  8
VHH-025
100
AcDbPolyline
 90
        2
 70
     0
 43
0.0
 10
178.176658
 20
-350.409728
 10
200.466449
 20
-346.856472
  0
LWPOLYLINE
  5
176D
100
AcDbEntity
  8
VHH-025
100
AcDbPolyline
 90
        8
 70
     0
 43
0.0
 10
222.682952
 20
-345.242635
 10
222.325694
 20
-346.734651
 10
221.983272
 20
-347.426843
 10
221.543559
 20
-348.054969
 10
221.008946
 20
-348.613212
 10
220.399644
 20
-349.078747
 10
219.720274
 20
-349.446813
 10
218.989737
 20
-349.704212
  0
LWPOLYLINE
  5
176E
100
AcDbEntity
  8
VHH-025
100
AcDbPolyline
 90
        5
 70
     0
 43
0.0
 10
200.389437
 20
-346.250771
 10
200.840719
 20
-346.141307
 10
201.224132
 20
-345.998462
 10
201.481605
 20
-345.844094
 10
201.574248
 20
-345.701225
  0
LWPOLYLINE
  5
176F
100
AcDbEntity
  8
VHH-025
100
AcDbPolyline
 90
        7
 70
     0
 43
0.0
 10
200.466449
 20
-346.856472
 10
200.791935
 20
-346.786552
 10
201.106166
 20
-346.701104
 10
201.394443
 20
-346.604247
 10
201.649033
 20
-346.498625
 10
202.013648
 20
-346.279907
 10
202.144871
 20
-346.077599
  0
LWPOLYLINE
  5
1770
100
AcDbEntity
  8
VHH-025
100
AcDbPolyline
 90
        8
 70
     0
 43
0.0
 10
256.815793
 20
-364.642158
 10
255.413243
 20
-364.021451
 10
254.79952
 20
-363.553782
 10
254.267802
 20
-363.000015
 10
253.824
 20
-362.367726
 10
253.483013
 20
-361.680443
 10
253.246655
 20
-360.943865
 10
253.122578
 20
-360.180582
  0
LWPOLYLINE
  5
1771
100
AcDbEntity
  8
VHH-025
100
AcDbPolyline
 90
        2
 70
     0
 43
0.0
 10
253.122578
 20
-360.180582
 10
252.102724
 20
-345.242635
  0
LWPOLYLINE
  5
1772
100
AcDbEntity
  8
VHH-025
100
AcDbPolyline
 90
        8
 70
     0
 43
0.0
 10
252.096167
 20
-345.242635
 10
252.453425
 20
-346.734651
 10
252.795848
 20
-347.426843
 10
253.23556
 20
-348.054969
 10
253.770174
 20
-348.613212
 10
254.379476
 20
-349.078747
 10
255.058845
 20
-349.446813
 10
255.789382
 20
-349.704212
  0
LWPOLYLINE
  5
1773
100
AcDbEntity
  8
VHH-025
100
AcDbPolyline
 90
        6
 70
     0
 43
0.0
 10
296.602462
 20
-350.409728
 10
297.086936
 20
-350.470247
 10
297.389659
 20
-350.48035
 10
297.664314
 20
-350.465255
 10
298.082196
 20
-350.362793
 10
298.27757
 20
-350.177698
  0
LWPOLYLINE
  5
1774
100
AcDbEntity
  8
VHH-025
100
AcDbPolyline
 90
        2
 70
     0
 43
0.0
 10
291.132042
 20
-348.697835
 10
291.130532
 20
-348.716204
  0
LWPOLYLINE
  5
1775
100
AcDbEntity
  8
VHH-025
100
AcDbPolyline
 90
        4
 70
     0
 43
0.0
 10
294.109852
 20
-346.029954
 10
294.409067
 20
-346.069792
 10
294.630954
 20
-346.099198
 10
294.852858
 20
-346.128489
  0
LWPOLYLINE
  5
1776
100
AcDbEntity
  8
VHH-025
100
AcDbPolyline
 90
        2
 70
     0
 43
0.0
 10
294.117306
 20
-347.36771
 10
294.109852
 20
-346.029954
  0
LWPOLYLINE
  5
1777
100
AcDbEntity
  8
VHH-025
100
AcDbPolyline
 90
        4
 70
     0
 43
0.0
 10
294.86013
 20
-347.467319
 10
294.560367
 20
-347.427281
 10
294.338828
 20
-347.397553
 10
294.117306
 20
-347.36771
  0
LWPOLYLINE
  5
1778
100
AcDbEntity
  8
VHH-025
100
AcDbPolyline
 90
        2
 70
     0
 43
0.0
 10
294.852858
 20
-346.128489
 10
294.86013
 20
-347.467319
  0
LWPOLYLINE
  5
1779
100
AcDbEntity
  8
VHH-025
100
AcDbPolyline
 90
        2
 70
     0
 43
0.0
 10
297.585766
 20
-350.062475
 10
297.584487
 20
-350.077904
  0
LWPOLYLINE
  5
177A
100
AcDbEntity
  8
VHH-025
100
AcDbPolyline
 90
        2
 70
     0
 43
0.0
 10
298.279751
 20
-350.151434
 10
298.27757
 20
-350.177698
  0
LWPOLYLINE
  5
177B
100
AcDbEntity
  8
VHH-025
100
AcDbPolyline
 90
       11
 70
     0
 43
0.0
 10
320.042731
 20
-357.785829
 10
318.537079
 20
-357.612295
 10
317.806629
 20
-357.498602
 10
317.093736
 20
-357.36717
 10
315.77519
 20
-357.06159
 10
314.6163
 20
-356.703832
 10
313.673092
 20
-356.311596
 10
313.28755
 20
-356.104501
 10
312.969277
 20
-355.895189
 10
312.537754
 20
-355.47399
 10
312.390647
 20
-355.058505
  0
LWPOLYLINE
  5
177C
100
AcDbEntity
  8
VHH-025
100
AcDbPolyline
 90
        5
 70
     0
 43
0.0
 10
274.389682
 20
-346.250771
 10
273.9384
 20
-346.141307
 10
273.554988
 20
-345.998462
 10
273.297515
 20
-345.844094
 10
273.204872
 20
-345.701225
  0
LWPOLYLINE
  5
177D
100
AcDbEntity
  8
VHH-025
100
AcDbPolyline
 90
        7
 70
     0
 43
0.0
 10
274.312671
 20
-346.856472
 10
273.987184
 20
-346.786552
 10
273.672953
 20
-346.701104
 10
273.384676
 20
-346.604247
 10
273.130086
 20
-346.498625
 10
272.765472
 20
-346.279907
 10
272.634248
 20
-346.077599
  0
LWPOLYLINE
  5
177E
100
AcDbEntity
  8
VHH-025
100
AcDbPolyline
 90
        2
 70
     0
 43
0.0
 10
274.389682
 20
-346.250771
 10
289.95175
 20
-348.858566
  0
LWPOLYLINE
  5
177F
100
AcDbEntity
  8
VHH-025
100
AcDbPolyline
 90
        2
 70
     0
 43
0.0
 10
296.602462
 20
-350.409728
 10
274.312671
 20
-346.856472
  0
CIRCLE
  5
1780
100
AcDbEntity
  8
VHH-025
100
AcDbCircle
 10
287.616667
 20
-417.021775
 30
0.0
 40
2.75
  0
CIRCLE
  5
1781
100
AcDbEntity
  8
VHH-025
100
AcDbCircle
 10
285.202962
 20
-427.596909
 30
0.0
 40
2.75
  0
CIRCLE
  5
1782
100
AcDbEntity
  8
VHH-025
100
AcDbCircle
 10
276.916074
 20
-420.142458
 30
0.0
 40
2.75
  0
CIRCLE
  5
1783
100
AcDbEntity
  8
VHH-025
100
AcDbCircle
 10
307.162454
 20
-417.021775
 30
0.0
 40
2.75
  0
CIRCLE
  5
1784
100
AcDbEntity
  8
VHH-025
100
AcDbCircle
 10
317.863047
 20
-420.142458
 30
0.0
 40
2.75
  0
CIRCLE
  5
1785
100
AcDbEntity
  8
VHH-025
100
AcDbCircle
 10
297.38956
 20
-424.815397
 30
0.0
 40
6.25
  0
CIRCLE
  5
1786
100
AcDbEntity
  8
VHH-025
100
AcDbCircle
 10
309.576159
 20
-427.596909
 30
0.0
 40
2.75
  0
CIRCLE
  5
1787
100
AcDbEntity
  8
VHH-025
100
AcDbCircle
 10
288.278002
 20
-405.895051
 30
0.0
 40
2.75
  0
CIRCLE
  5
1788
100
AcDbEntity
  8
VHH-025
100
AcDbCircle
 10
306.501119
 20
-405.895051
 30
0.0
 40
2.75
  0
CIRCLE
  5
1789
100
AcDbEntity
  8
VHH-025
100
AcDbCircle
 10
297.38956
 20
-412.315397
 30
0.0
 40
2.75
  0
LINE
  5
178A
100
AcDbEntity
  8
VHH-025
100
AcDbLine
 10
336.563859
 20
-428.808182
 30
0.0
 11
337.483272
 21
-428.808182
 31
0.0
  0
ARC
  5
178B
100
AcDbEntity
  8
VHH-025
100
AcDbCircle
 10
335.971099
 20
-424.275503
 30
0.0
 40
2.75
100
AcDbArc
 50
96.251038
 51
277.748962
  0
CIRCLE
  5
178C
100
AcDbEntity
  8
VHH-025
100
AcDbCircle
 10
327.912258
 20
-417.848791
 30
0.0
 40
2.75
  0
LINE
  5
178D
100
AcDbEntity
  8
VHH-025
100
AcDbLine
 10
337.083626
 20
-428.808182
 30
0.0
 11
330.988517
 21
-376.315239
 31
0.0
  0
LINE
  5
178E
100
AcDbEntity
  8
VHH-025
100
AcDbLine
 10
336.563859
 20
-428.808182
 30
0.0
 11
330.115037
 21
-376.28674
 31
0.0
  0
CIRCLE
  5
178F
100
AcDbEntity
  8
VHH-025
100
AcDbCircle
 10
321.866863
 20
-444.335395
 30
0.0
 40
2.75
  0
CIRCLE
  5
1790
100
AcDbEntity
  8
VHH-025
100
AcDbCircle
 10
280.971099
 20
-437.908683
 30
0.0
 40
2.75
  0
CIRCLE
  5
1791
100
AcDbEntity
  8
VHH-025
100
AcDbCircle
 10
313.808022
 20
-437.908683
 30
0.0
 40
2.75
  0
CIRCLE
  5
1792
100
AcDbEntity
  8
VHH-025
100
AcDbCircle
 10
297.38956
 20
-445.815397
 30
0.0
 40
2.75
  0
CIRCLE
  5
1793
100
AcDbEntity
  8
VHH-025
100
AcDbCircle
 10
291.966014
 20
-436.077508
 30
0.0
 40
2.75
  0
CIRCLE
  5
1794
100
AcDbEntity
  8
VHH-025
100
AcDbCircle
 10
302.813107
 20
-436.077508
 30
0.0
 40
2.75
  0
CIRCLE
  5
1795
100
AcDbEntity
  8
VHH-025
100
AcDbCircle
 10
331.916074
 20
-442.041728
 30
0.0
 40
2.75
  0
CIRCLE
  5
1796
100
AcDbEntity
  8
VHH-025
100
AcDbCircle
 10
324.88956
 20
-431.092093
 30
0.0
 40
2.75
  0
LWPOLYLINE
  5
1797
100
AcDbEntity
  8
VHH-025
100
AcDbPolyline
 90
        6
 70
     0
 43
0.0
 10
338.521663
 20
-438.089665
 10
338.551755
 20
-436.208038
 10
339.280034
 20
-432.652531
 10
340.345644
 20
-430.269373
 10
341.228839
 20
-428.894332
 10
342.617463
 20
-427.265849
  0
LWPOLYLINE
  5
1798
100
AcDbEntity
  8
VHH-025
100
AcDbPolyline
 90
        6
 70
     0
 43
0.0
 10
338.61251
 20
-437.337625
 10
338.878208
 20
-434.648849
 10
339.66164
 20
-432.063289
 10
340.93601
 20
-429.681
 10
342.649311
 20
-427.591923
 10
342.986868
 20
-427.265796
  0
LWPOLYLINE
  5
1799
100
AcDbEntity
  8
VHH-025
100
AcDbPolyline
 90
       14
 70
     0
 43
0.0
 10
366.756205
 20
-471.922459
 10
365.117323
 20
-468.498183
 10
364.115999
 20
-465.590764
 10
363.3402
 20
-462.096069
 10
362.922866
 20
-457.943052
 10
362.996938
 20
-453.060672
 10
364.057131
 20
-444.785448
 10
364.466925
 20
-442.628664
 10
364.837048
 20
-441.006656
 10
365.454908
 20
-439.059619
 10
365.903976
 20
-438.329635
 10
366.177516
 20
-438.202002
 10
366.268801
 20
-438.067848
 10
366.177516
 20
-437.337625
  0
LWPOLYLINE
  5
179A
100
AcDbEntity
  8
VHH-025
100
AcDbPolyline
 90
        9
 70
     0
 43
0.0
 10
352.395013
 20
-479.933962
 10
354.725531
 20
-479.832581
 10
357.038002
 20
-479.529399
 10
359.314496
 20
-479.026607
 10
361.537401
 20
-478.328227
 10
364.166919
 20
-477.088044
 10
366.164921
 20
-475.380745
 10
367.009757
 20
-473.4856
 10
366.756205
 20
-471.922459
  0
CIRCLE
  5
179B
100
AcDbEntity
  8
VHH-025
100
AcDbCircle
 10
374.442848
 20
-454.955699
 30
0.0
 40
2.75
  0
ARC
  5
179C
100
AcDbEntity
  8
VHH-025
100
AcDbCircle
 10
361.501119
 20
-456.289135
 30
0.0
 40
2.75
100
AcDbArc
 50
302.756594
 51
57.390996
  0
LWPOLYLINE
  5
179D
100
AcDbEntity
  8
VHH-025
100
AcDbPolyline
 90
        8
 70
   128
 43
0.0
 10
467.228112
 20
-453.107827
 10
467.228768
 20
-453.880851
 10
467.23072
 20
-454.62473
 10
467.233886
 20
-455.311416
 10
467.238155
 20
-455.915019
 10
467.243356
 20
-456.412783
 10
467.249301
 20
-456.785938
 10
467.255761
 20
-457.020417
  0
LWPOLYLINE
  5
179E
100
AcDbEntity
  8
VHH-025
100
AcDbPolyline
 90
        5
 70
   128
 43
0.0
 10
467.389559
 20
-491.515795
 10
467.331429
 20
-491.858723
 10
467.162644
 20
-492.162997
 10
466.904213
 20
-492.390307
 10
466.671397
 20
-492.494101
  0
LWPOLYLINE
  5
179F
100
AcDbEntity
  8
VHH-025
100
AcDbPolyline
 90
        5
 70
   128
 43
0.0
 10
466.896412
 20
-478.164668
 10
466.89747
 20
-478.880635
 10
466.900555
 20
-479.515745
 10
466.905226
 20
-479.979715
 10
466.910456
 20
-480.211983
  0
LWPOLYLINE
  5
17A0
100
AcDbEntity
  8
VHH-025
100
AcDbPolyline
 90
        9
 70
   128
 43
0.0
 10
466.910456
 20
-480.211983
 10
466.897448
 20
-480.367789
 10
466.859301
 20
-480.519628
 10
466.796992
 20
-480.663633
 10
466.712107
 20
-480.796138
 10
466.606808
 20
-480.913764
 10
466.483777
 20
-481.013516
 10
466.346142
 20
-481.092861
 10
466.197421
 20
-481.149772
  0
LINE
  5
17A1
100
AcDbEntity
  8
VHH-025
100
AcDbLine
 10
467.389559
 20
-460.279258
 30
0.0
 11
467.389559
 21
-491.515795
 31
0.0
  0
LINE
  5
17A2
100
AcDbEntity
  8
VHH-025
100
AcDbLine
 10
466.910456
 20
-480.211983
 30
0.0
 11
467.389559
 21
-491.515795
 31
0.0
  0
LINE
  5
17A3
100
AcDbEntity
  8
VHH-025
100
AcDbLine
 10
467.389559
 20
-460.279258
 30
0.0
 11
467.255761
 21
-457.020417
 31
0.0
  0
LWPOLYLINE
  5
17A4
100
AcDbEntity
  8
VHH-025
100
AcDbPolyline
 90
        3
 70
     0
 43
0.0
 10
423.395651
 20
-370.194776
 10
425.376357
 20
-369.869575
 10
447.972058
 20
-364.642158
  0
CIRCLE
  5
17A5
100
AcDbEntity
  8
VHH-025
100
AcDbCircle
 10
407.38956
 20
-424.815397
 30
0.0
 40
6.25
  0
LWPOLYLINE
  5
17A6
100
AcDbEntity
  8
VHH-025
100
AcDbPolyline
 90
       11
 70
     0
 43
0.0
 10
392.390647
 20
-355.058505
 10
392.245751
 20
-355.470794
 10
392.066006
 20
-355.681073
 10
391.814469
 20
-355.893376
 10
391.116235
 20
-356.307649
 10
390.168822
 20
-356.702464
 10
389.018028
 20
-357.058395
 10
388.371576
 20
-357.219786
 10
387.693635
 20
-357.365956
 10
386.255135
 20
-357.610743
 10
384.738563
 20
-357.785829
  0
LWPOLYLINE
  5
17A7
100
AcDbEntity
  8
VHH-025
100
AcDbPolyline
 90
        9
 70
     0
 43
0.0
 10
361.803158
 20
-427.265796
 10
362.157867
 20
-427.265054
 10
362.052531
 20
-427.266103
 10
361.53263
 20
-427.266255
 10
360.585203
 20
-427.265802
 10
359.182991
 20
-427.265592
 10
357.299981
 20
-427.265745
 10
354.96125
 20
-427.26606
 10
352.395013
 20
-427.265796
  0
CIRCLE
  5
17A8
100
AcDbEntity
  8
VHH-025
100
AcDbCircle
 10
376.866863
 20
-417.848791
 30
0.0
 40
2.75
  0
LINE
  5
17A9
100
AcDbEntity
  8
VHH-025
100
AcDbLine
 10
367.706399
 20
-428.808182
 30
0.0
 11
373.801541
 21
-376.314953
 31
0.0
  0
LINE
  5
17AA
100
AcDbEntity
  8
VHH-025
100
AcDbLine
 10
368.226167
 20
-428.808182
 30
0.0
 11
374.675024
 21
-376.286454
 31
0.0
  0
LINE
  5
17AB
100
AcDbEntity
  8
VHH-025
100
AcDbLine
 10
368.226167
 20
-428.808182
 30
0.0
 11
367.306753
 21
-428.808182
 31
0.0
  0
ARC
  5
17AC
100
AcDbEntity
  8
VHH-025
100
AcDbCircle
 10
368.808022
 20
-424.275503
 30
0.0
 40
2.75
100
AcDbArc
 50
262.476558
 51
83.523442
  0
ARC
  5
17AD
100
AcDbEntity
  8
VHH-025
100
AcDbCircle
 10
352.395013
 20
-434.608182
 30
0.0
 40
16.0
100
AcDbArc
 50
21.253809
 51
90.0
  0
CIRCLE
  5
17AE
100
AcDbEntity
  8
VHH-025
100
AcDbCircle
 10
397.616667
 20
-417.021775
 30
0.0
 40
2.75
  0
CIRCLE
  5
17AF
100
AcDbEntity
  8
VHH-025
100
AcDbCircle
 10
386.916074
 20
-420.142458
 30
0.0
 40
2.75
  0
CIRCLE
  5
17B0
100
AcDbEntity
  8
VHH-025
100
AcDbCircle
 10
395.202962
 20
-427.596909
 30
0.0
 40
2.75
  0
CIRCLE
  5
17B1
100
AcDbEntity
  8
VHH-025
100
AcDbCircle
 10
407.38956
 20
-412.315397
 30
0.0
 40
2.75
  0
CIRCLE
  5
17B2
100
AcDbEntity
  8
VHH-025
100
AcDbCircle
 10
398.278002
 20
-405.895051
 30
0.0
 40
2.75
  0
CIRCLE
  5
17B3
100
AcDbEntity
  8
VHH-025
100
AcDbCircle
 10
427.863047
 20
-420.142458
 30
0.0
 40
2.75
  0
CIRCLE
  5
17B4
100
AcDbEntity
  8
VHH-025
100
AcDbCircle
 10
417.162454
 20
-417.021775
 30
0.0
 40
2.75
  0
CIRCLE
  5
17B5
100
AcDbEntity
  8
VHH-025
100
AcDbCircle
 10
419.576159
 20
-427.596909
 30
0.0
 40
2.75
  0
CIRCLE
  5
17B6
100
AcDbEntity
  8
VHH-025
100
AcDbCircle
 10
416.501119
 20
-405.895051
 30
0.0
 40
2.75
  0
CIRCLE
  5
17B7
100
AcDbEntity
  8
VHH-025
100
AcDbCircle
 10
412.813107
 20
-436.077508
 30
0.0
 40
2.75
  0
CIRCLE
  5
17B8
100
AcDbEntity
  8
VHH-025
100
AcDbCircle
 10
372.863047
 20
-442.041728
 30
0.0
 40
2.75
  0
CIRCLE
  5
17B9
100
AcDbEntity
  8
VHH-025
100
AcDbCircle
 10
407.38956
 20
-445.815397
 30
0.0
 40
2.75
  0
CIRCLE
  5
17BA
100
AcDbEntity
  8
VHH-025
100
AcDbCircle
 10
390.971099
 20
-437.908683
 30
0.0
 40
2.75
  0
CIRCLE
  5
17BB
100
AcDbEntity
  8
VHH-025
100
AcDbCircle
 10
382.912258
 20
-444.335395
 30
0.0
 40
2.75
  0
CIRCLE
  5
17BC
100
AcDbEntity
  8
VHH-025
100
AcDbCircle
 10
401.966014
 20
-436.077508
 30
0.0
 40
2.75
  0
CIRCLE
  5
17BD
100
AcDbEntity
  8
VHH-025
100
AcDbCircle
 10
423.808022
 20
-437.908683
 30
0.0
 40
2.75
  0
LWPOLYLINE
  5
17BE
100
AcDbEntity
  8
VHH-025
100
AcDbPolyline
 90
        6
 70
     0
 43
0.0
 10
362.172571
 20
-427.265841
 10
363.626377
 20
-428.984675
 10
364.539655
 20
-430.441283
 10
365.940952
 20
-434.199752
 10
366.240737
 20
-436.239798
 10
366.268361
 20
-438.089665
  0
LWPOLYLINE
  5
17BF
100
AcDbEntity
  8
VHH-025
100
AcDbPolyline
 90
        6
 70
     0
 43
0.0
 10
366.177516
 20
-437.337625
 10
365.911817
 20
-434.648849
 10
365.128385
 20
-432.063289
 10
363.854016
 20
-429.681
 10
362.140714
 20
-427.591923
 10
361.803158
 20
-427.265796
  0
CIRCLE
  5
17C0
100
AcDbEntity
  8
VHH-025
100
AcDbCircle
 10
379.88956
 20
-431.092093
 30
0.0
 40
2.75
  0
LWPOLYLINE
  5
17C1
100
AcDbEntity
  8
VHH-025
100
AcDbPolyline
 90
        8
 70
     0
 43
0.0
 10
482.096167
 20
-345.242635
 10
482.453425
 20
-346.734651
 10
482.795848
 20
-347.426843
 10
483.23556
 20
-348.054969
 10
483.770174
 20
-348.613212
 10
484.379476
 20
-349.078747
 10
485.058845
 20
-349.446813
 10
485.789382
 20
-349.704212
  0
LWPOLYLINE
  5
17C2
100
AcDbEntity
  8
VHH-025
100
AcDbPolyline
 90
        8
 70
     0
 43
0.0
 10
447.972058
 20
-364.642158
 10
449.374608
 20
-364.021451
 10
449.988331
 20
-363.553782
 10
450.52005
 20
-363.000015
 10
450.963851
 20
-362.367726
 10
451.304838
 20
-361.680443
 10
451.541196
 20
-360.943865
 10
451.665273
 20
-360.180582
  0
LWPOLYLINE
  5
17C3
100
AcDbEntity
  8
VHH-025
100
AcDbPolyline
 90
        8
 70
     0
 43
0.0
 10
448.991912
 20
-349.704212
 10
450.394462
 20
-349.083505
 10
451.008185
 20
-348.615836
 10
451.539903
 20
-348.062068
 10
451.983704
 20
-347.429779
 10
452.324692
 20
-346.742497
 10
452.56105
 20
-346.005918
 10
452.685127
 20
-345.242635
  0
LWPOLYLINE
  5
17C4
100
AcDbEntity
  8
VHH-025
100
AcDbPolyline
 90
        2
 70
     0
 43
0.0
 10
451.665273
 20
-360.180582
 10
452.685127
 20
-345.242635
  0
LWPOLYLINE
  5
17C5
100
AcDbEntity
  8
VHH-025
100
AcDbPolyline
 90
        2
 70
     0
 43
0.0
 10
504.389682
 20
-346.250771
 10
519.95175
 20
-348.858566
  0
LWPOLYLINE
  5
17C6
100
AcDbEntity
  8
VHH-025
100
AcDbPolyline
 90
        7
 70
     0
 43
0.0
 10
504.312671
 20
-346.856472
 10
503.987184
 20
-346.786552
 10
503.672953
 20
-346.701104
 10
503.384676
 20
-346.604247
 10
503.130086
 20
-346.498625
 10
502.765472
 20
-346.279907
 10
502.634248
 20
-346.077599
  0
LWPOLYLINE
  5
17C7
100
AcDbEntity
  8
VHH-025
100
AcDbPolyline
 90
        5
 70
     0
 43
0.0
 10
504.389682
 20
-346.250771
 10
503.9384
 20
-346.141307
 10
503.554988
 20
-345.998462
 10
503.297515
 20
-345.844094
 10
503.204872
 20
-345.701225
  0
LWPOLYLINE
  5
17C8
100
AcDbEntity
  8
VHH-025
100
AcDbPolyline
 90
        2
 70
     0
 43
0.0
 10
521.132042
 20
-348.697835
 10
521.130532
 20
-348.716204
  0
LWPOLYLINE
  5
187A
100
AcDbEntity
  8
VHH-025
100
AcDbPolyline
 90
       13
 70
     0
 43
0.0
 10
614.738563
 20
-357.785829
 10
606.647374
 20
-358.417335
 10
602.610252
 20
-358.664714
 10
600.594121
 20
-358.771407
 10
599.586702
 20
-358.820516
 10
598.579727
 20
-358.866807
 10
582.389292
 20
-359.227552
 10
574.298126
 20
-359.137431
 10
570.249308
 20
-359.024677
 10
568.224393
 20
-358.951346
 10
567.211847
 20
-358.910439
 10
566.199257
 20
-358.866704
 10
550.042731
 20
-357.785829
  0
ELLIPSE
  5
187B
100
AcDbEntity
  8
VHH-025
100
AcDbEllipse
 10
582.390647
 20
-374.55876
 30
0.0
 11
9.02141366785881
 21
0.000000005659161
 31
0.0
210
0.0
220
0.0
230
-1.0
 40
0.096226
 41
6.283080207638587
 42
9.424672916864945
  0
LWPOLYLINE
  5
187C
100
AcDbEntity
  8
VHH-025
100
AcDbPolyline
 90
        2
 70
     0
 43
0.0
 10
528.279751
 20
-350.151434
 10
528.27757
 20
-350.177698
  0
LWPOLYLINE
  5
187D
100
AcDbEntity
  8
VHH-025
100
AcDbPolyline
 90
        2
 70
     0
 43
0.0
 10
527.585766
 20
-350.062475
 10
527.584487
 20
-350.077904
  0
LWPOLYLINE
  5
187E
100
AcDbEntity
  8
VHH-025
100
AcDbPolyline
 90
        2
 70
     0
 43
0.0
 10
524.852858
 20
-346.128489
 10
524.86013
 20
-347.467319
  0
LWPOLYLINE
  5
187F
100
AcDbEntity
  8
VHH-025
100
AcDbPolyline
 90
        4
 70
     0
 43
0.0
 10
524.86013
 20
-347.467319
 10
524.560367
 20
-347.427281
 10
524.338828
 20
-347.397553
 10
524.117306
 20
-347.36771
  0
LWPOLYLINE
  5
1880
100
AcDbEntity
  8
VHH-025
100
AcDbPolyline
 90
        2
 70
     0
 43
0.0
 10
524.117306
 20
-347.36771
 10
524.109852
 20
-346.029954
  0
LWPOLYLINE
  5
1881
100
AcDbEntity
  8
VHH-025
100
AcDbPolyline
 90
        4
 70
     0
 43
0.0
 10
524.109852
 20
-346.029954
 10
524.409067
 20
-346.069792
 10
524.630954
 20
-346.099198
 10
524.852858
 20
-346.128489
  0
LWPOLYLINE
  5
1882
100
AcDbEntity
  8
VHH-025
100
AcDbPolyline
 90
        6
 70
     0
 43
0.0
 10
526.602462
 20
-350.409728
 10
527.086936
 20
-350.470247
 10
527.389659
 20
-350.48035
 10
527.664314
 20
-350.465255
 10
528.082196
 20
-350.362793
 10
528.27757
 20
-350.177698
  0
LWPOLYLINE
  5
1883
100
AcDbEntity
  8
VHH-025
100
AcDbPolyline
 90
       11
 70
     0
 43
0.0
 10
550.042731
 20
-357.785829
 10
548.537079
 20
-357.612295
 10
547.806629
 20
-357.498602
 10
547.093736
 20
-357.36717
 10
545.77519
 20
-357.06159
 10
544.6163
 20
-356.703832
 10
543.673092
 20
-356.311596
 10
543.28755
 20
-356.104501
 10
542.969277
 20
-355.895189
 10
542.537754
 20
-355.47399
 10
542.390647
 20
-355.058505
  0
LINE
  5
1884
100
AcDbEntity
  8
VHH-025
100
AcDbLine
 10
570.548528
 20
-361.925147
 30
0.0
 11
573.369233
 21
-374.558852
 31
0.0
  0
LINE
  5
1885
100
AcDbEntity
  8
VHH-025
100
AcDbLine
 10
594.232766
 20
-361.925147
 30
0.0
 11
591.412061
 21
-374.558852
 31
0.0
  0
LWPOLYLINE
  5
1886
100
AcDbEntity
  8
VHH-025
100
AcDbPolyline
 90
       11
 70
     0
 43
0.0
 10
622.390647
 20
-355.058505
 10
622.245751
 20
-355.470794
 10
622.066006
 20
-355.681073
 10
621.814469
 20
-355.893376
 10
621.116235
 20
-356.307649
 10
620.168822
 20
-356.702464
 10
619.018028
 20
-357.058395
 10
618.371576
 20
-357.219786
 10
617.693635
 20
-357.365956
 10
616.255135
 20
-357.610743
 10
614.738563
 20
-357.785829
  0
LWPOLYLINE
  5
1887
100
AcDbEntity
  8
VHH-025
100
AcDbPolyline
 90
        8
 70
     0
 43
0.0
 10
678.991912
 20
-349.704212
 10
680.394462
 20
-349.083505
 10
681.008185
 20
-348.615836
 10
681.539903
 20
-348.062068
 10
681.983704
 20
-347.429779
 10
682.324692
 20
-346.742497
 10
682.56105
 20
-346.005918
 10
682.685127
 20
-345.242635
  0
LINE
  5
1982
100
AcDbEntity
  8
VHH-025
100
AcDbLine
 10
465.391735
 20
0.0
 30
0.0
 11
699.387385
 21
0.0
 31
0.0
  0
LWPOLYLINE
  5
1983
100
AcDbEntity
  8
VHH-025
100
AcDbPolyline
 90
        2
 70
     0
 43
0.0
 10
496.374051
 20
-11.233013
 10
541.88956
 20
-10.791485
  0
LWPOLYLINE
  5
1984
100
AcDbEntity
  8
VHH-025
100
AcDbPolyline
 90
        2
 70
     0
 43
0.0
 10
541.88956
 20
-19.539228
 10
496.374051
 20
-19.097699
  0
LWPOLYLINE
  5
1985
100
AcDbEntity
  8
VHH-025
100
AcDbPolyline
 90
       10
 70
     0
 43
0.0
 10
488.538421
 20
-323.494167
 10
501.822053
 20
-325.697682
 10
508.553793
 20
-326.673372
 10
511.941948
 20
-327.129681
 10
513.641568
 20
-327.34995
 10
514.49276
 20
-327.458113
 10
514.9187
 20
-327.511701
 10
515.131757
 20
-327.538372
 10
515.344871
 20
-327.564961
 10
542.390647
 20
-330.232757
  0
LWPOLYLINE
  5
1986
100
AcDbEntity
  8
VHH-025
100
AcDbPolyline
 90
        2
 70
     0
 43
0.0
 10
504.282346
 20
-335.399003
 10
526.626115
 20
-338.635308
  0
LWPOLYLINE
  5
1987
100
AcDbEntity
  8
VHH-025
100
AcDbPolyline
 90
        2
 70
     0
 43
0.0
 10
521.563427
 20
-338.240329
 10
526.621707
 20
-338.876096
  0
LWPOLYLINE
  5
1988
100
AcDbEntity
  8
VHH-025
100
AcDbPolyline
 90
        2
 70
     0
 43
0.0
 10
485.990647
 20
-213.031032
 10
569.644583
 20
-213.039073
  0
LINE
  5
1989
100
AcDbEntity
  8
VHH-025
100
AcDbLine
 10
237.38956
 20
-332.0
 30
0.0
 11
237.38956
 21
0.0
 31
0.0
  0
LINE
  5
198A
100
AcDbEntity
  8
VHH-025
100
AcDbLine
 10
255.48956
 20
-218.158028
 30
0.0
 11
255.48956
 21
0.0
 31
0.0
  0
LINE
  5
198B
100
AcDbEntity
  8
VHH-025
100
AcDbLine
 10
219.289559
 20
-218.158028
 30
0.0
 11
219.289559
 21
0.0
 31
0.0
  0
LINE
  5
198C
100
AcDbEntity
  8
VHH-025
100
AcDbLine
 10
467.389559
 20
-332.0
 30
0.0
 11
467.389559
 21
0.0
 31
0.0
  0
LINE
  5
198D
100
AcDbEntity
  8
VHH-025
100
AcDbLine
 10
449.289559
 20
-218.158028
 30
0.0
 11
449.289559
 21
0.0
 31
0.0
  0
LINE
  5
198E
100
AcDbEntity
  8
VHH-025
100
AcDbLine
 10
485.48956
 20
-218.158028
 30
0.0
 11
485.48956
 21
0.0
 31
0.0
  0
LINE
  5
198F
100
AcDbEntity
  8
VHH-025
100
AcDbLine
 10
467.38956
 20
-332.0
 30
0.0
 11
467.38956
 21
0.0
 31
0.0
  0
LWPOLYLINE
  5
1990
100
AcDbEntity
  8
VHH-025
100
AcDbPolyline
 90
        2
 70
     0
 43
0.0
 10
352.390647
 20
-307.276471
 10
345.848855
 20
-307.22157
  0
LWPOLYLINE
  5
1991
100
AcDbEntity
  8
VHH-025
100
AcDbPolyline
 90
        4
 70
     0
 43
0.0
 10
339.644583
 20
-213.039073
 10
342.858345
 20
-213.039061
 10
346.072107
 20
-213.039025
 10
352.390647
 20
-213.038884
  0
LWPOLYLINE
  5
1992
100
AcDbEntity
  8
VHH-025
100
AcDbPolyline
 90
        2
 70
     0
 43
0.0
 10
352.390647
 20
-331.272172
 10
345.848855
 20
-331.217272
  0
LWPOLYLINE
  5
1993
100
AcDbEntity
  8
VHH-025
100
AcDbPolyline
 90
        3
 70
     0
 43
0.0
 10
222.831136
 20
-260.40696
 10
224.179698
 20
-238.717264
 10
225.509512
 20
-218.158028
  0
LWPOLYLINE
  5
1994
100
AcDbEntity
  8
VHH-025
100
AcDbPolyline
 90
        2
 70
     0
 43
0.0
 10
227.49137
 20
-218.833978
 10
225.286782
 20
-260.900015
  0
LWPOLYLINE
  5
1995
100
AcDbEntity
  8
VHH-025
100
AcDbPolyline
 90
        3
 70
     0
 43
0.0
 10
251.947984
 20
-260.40696
 10
250.599421
 20
-238.717264
 10
249.269608
 20
-218.158028
  0
LWPOLYLINE
  5
1996
100
AcDbEntity
  8
VHH-025
100
AcDbPolyline
 90
        2
 70
     0
 43
0.0
 10
247.28775
 20
-218.833978
 10
249.492337
 20
-260.900015
  0
LWPOLYLINE
  5
1997
100
AcDbEntity
  8
VHH-025
100
AcDbPolyline
 90
       10
 70
     0
 43
0.0
 10
258.538421
 20
-323.494167
 10
271.822053
 20
-325.697682
 10
278.553793
 20
-326.673372
 10
281.941948
 20
-327.129681
 10
283.641568
 20
-327.34995
 10
284.49276
 20
-327.458113
 10
284.9187
 20
-327.511701
 10
285.131757
 20
-327.538372
 10
285.344871
 20
-327.564961
 10
312.390647
 20
-330.232757
  0
LWPOLYLINE
  5
1998
100
AcDbEntity
  8
VHH-025
100
AcDbPolyline
 90
        5
 70
     0
 43
0.0
 10
227.572529
 20
-260.900015
 10
227.752955
 20
-260.900015
 10
228.167014
 20
-260.900015
 10
228.797566
 20
-260.900015
 10
229.610471
 20
-260.900015
  0
LWPOLYLINE
  5
1999
100
AcDbEntity
  8
VHH-025
100
AcDbPolyline
 90
        3
 70
     0
 43
0.0
 10
229.610471
 20
-260.900015
 10
230.004461
 20
-260.900015
 10
230.279249
 20
-260.900015
  0
LWPOLYLINE
  5
199A
100
AcDbEntity
  8
VHH-025
100
AcDbPolyline
 90
        3
 70
     0
 43
0.0
 10
233.559489
 20
-260.900015
 10
232.501131
 20
-260.900015
 10
230.279249
 20
-260.900015
  0
LWPOLYLINE
  5
199B
100
AcDbEntity
  8
VHH-025
100
AcDbPolyline
 90
        7
 70
     0
 43
0.0
 10
229.346576
 20
-285.030523
 10
228.396687
 20
-285.768176
 10
227.993266
 20
-286.219677
 10
227.648789
 20
-286.71428
 10
227.367191
 20
-287.245287
 10
227.149791
 20
-287.811206
 10
226.928091
 20
-288.996634
  0
LWPOLYLINE
  5
199C
100
AcDbEntity
  8
VHH-025
100
AcDbPolyline
 90
        4
 70
     0
 43
0.0
 10
230.263937
 20
-283.779169
 10
229.931689
 20
-284.497473
 10
229.665914
 20
-284.793098
 10
229.346576
 20
-285.030523
  0
LWPOLYLINE
  5
199D
100
AcDbEntity
  8
VHH-025
100
AcDbPolyline
 90
       10
 70
     0
 43
0.0
 10
230.279249
 20
-260.900015
 10
230.259889
 20
-261.302155
 10
230.234756
 20
-261.823216
 10
230.184052
 20
-262.869622
 10
230.158489
 20
-263.394101
 10
230.132867
 20
-263.917829
 10
230.081453
 20
-264.963027
 10
229.872815
 20
-269.128191
 10
229.657269
 20
-273.261293
 10
229.429214
 20
-277.349502
  0
LWPOLYLINE
  5
199E
100
AcDbEntity
  8
VHH-025
100
AcDbPolyline
 90
        5
 70
     0
 43
0.0
 10
233.559489
 20
-260.900015
 10
233.375722
 20
-263.787681
 10
233.125251
 20
-266.669884
 10
232.430557
 20
-272.414443
 10
230.263937
 20
-283.779169
  0
LWPOLYLINE
  5
199F
100
AcDbEntity
  8
VHH-025
100
AcDbPolyline
 90
        7
 70
     0
 43
0.0
 10
222.831136
 20
-260.40696
 10
221.883664
 20
-275.403101
 10
221.38254
 20
-282.930982
 10
221.125134
 20
-286.701732
 10
220.863167
 20
-290.476778
 10
219.769
 20
-305.61892
 10
218.603225
 20
-320.781111
  0
LINE
  5
19A0
100
AcDbEntity
  8
VHH-025
100
AcDbLine
 10
225.286782
 20
-260.900015
 30
0.0
 11
227.572529
 21
-260.900015
 31
0.0
  0
LWPOLYLINE
  5
19A1
100
AcDbEntity
  8
VHH-025
100
AcDbPolyline
 90
        5
 70
     0
 43
0.0
 10
247.206591
 20
-260.900015
 10
247.026165
 20
-260.900015
 10
246.612106
 20
-260.900015
 10
245.981553
 20
-260.900015
 10
245.168648
 20
-260.900015
  0
LWPOLYLINE
  5
19A2
100
AcDbEntity
  8
VHH-025
100
AcDbPolyline
 90
        3
 70
     0
 43
0.0
 10
245.168648
 20
-260.900015
 10
244.774658
 20
-260.900015
 10
244.499871
 20
-260.900015
  0
LWPOLYLINE
  5
19A3
100
AcDbEntity
  8
VHH-025
100
AcDbPolyline
 90
        3
 70
     0
 43
0.0
 10
241.219631
 20
-260.900015
 10
242.277989
 20
-260.900015
 10
244.499871
 20
-260.900015
  0
LWPOLYLINE
  5
19A4
100
AcDbEntity
  8
VHH-025
100
AcDbPolyline
 90
        7
 70
     0
 43
0.0
 10
245.432544
 20
-285.030523
 10
246.382433
 20
-285.768176
 10
246.785854
 20
-286.219677
 10
247.13033
 20
-286.71428
 10
247.411929
 20
-287.245287
 10
247.629329
 20
-287.811206
 10
247.851028
 20
-288.996634
  0
LWPOLYLINE
  5
19A5
100
AcDbEntity
  8
VHH-025
100
AcDbPolyline
 90
        4
 70
     0
 43
0.0
 10
244.515183
 20
-283.779169
 10
244.84743
 20
-284.497473
 10
245.113205
 20
-284.793098
 10
245.432544
 20
-285.030523
  0
LWPOLYLINE
  5
19A6
100
AcDbEntity
  8
VHH-025
100
AcDbPolyline
 90
       10
 70
     0
 43
0.0
 10
244.499871
 20
-260.900015
 10
244.519231
 20
-261.302155
 10
244.544363
 20
-261.823216
 10
244.595068
 20
-262.869622
 10
244.62063
 20
-263.394101
 10
244.646253
 20
-263.917829
 10
244.697666
 20
-264.963027
 10
244.906304
 20
-269.128191
 10
245.12185
 20
-273.261293
 10
245.349905
 20
-277.349502
  0
LWPOLYLINE
  5
19A7
100
AcDbEntity
  8
VHH-025
100
AcDbPolyline
 90
        5
 70
     0
 43
0.0
 10
241.219631
 20
-260.900015
 10
241.403398
 20
-263.787681
 10
241.653869
 20
-266.669884
 10
242.348562
 20
-272.414443
 10
244.515183
 20
-283.779169
  0
LWPOLYLINE
  5
19A8
100
AcDbEntity
  8
VHH-025
100
AcDbPolyline
 90
        7
 70
     0
 43
0.0
 10
251.947984
 20
-260.40696
 10
252.895455
 20
-275.403101
 10
253.39658
 20
-282.930982
 10
253.653986
 20
-286.701732
 10
253.915952
 20
-290.476778
 10
255.01012
 20
-305.61892
 10
256.175894
 20
-320.781111
  0
LINE
  5
19A9
100
AcDbEntity
  8
VHH-025
100
AcDbLine
 10
249.492337
 20
-260.900015
 30
0.0
 11
247.206591
 21
-260.900015
 31
0.0
  0
LINE
  5
19AA
100
AcDbEntity
  8
VHH-025
100
AcDbLine
 10
241.219631
 20
-260.900015
 30
0.0
 11
237.38956
 21
-260.900015
 31
0.0
  0
LINE
  5
19AB
100
AcDbEntity
  8
VHH-025
100
AcDbLine
 10
239.387385
 20
-332.0
 30
0.0
 11
223.740162
 21
-332.0
 31
0.0
  0
LWPOLYLINE
  5
19AC
100
AcDbEntity
  8
VHH-025
100
AcDbPolyline
 90
        2
 70
     0
 43
0.0
 10
183.175661
 20
-338.005269
 10
183.215693
 20
-338.240329
  0
LWPOLYLINE
  5
19AD
100
AcDbEntity
  8
VHH-025
100
AcDbPolyline
 90
        2
 70
     0
 43
0.0
 10
183.672339
 20
-337.939924
 10
183.636838
 20
-338.046001
  0
LWPOLYLINE
  5
19AE
100
AcDbEntity
  8
VHH-025
100
AcDbPolyline
 90
        2
 70
     0
 43
0.0
 10
183.215693
 20
-338.240329
 10
178.157413
 20
-338.876096
  0
LWPOLYLINE
  5
19AF
100
AcDbEntity
  8
VHH-025
100
AcDbPolyline
 90
        4
 70
     0
 43
0.0
 10
178.157413
 20
-338.876096
 10
177.778007
 20
-338.947681
 10
177.457394
 20
-339.060278
 10
177.170556
 20
-339.336903
  0
LWPOLYLINE
  5
19B0
100
AcDbEntity
  8
VHH-025
100
AcDbPolyline
 90
        7
 70
     0
 43
0.0
 10
178.153005
 20
-338.635308
 10
177.824242
 20
-338.685865
 10
177.507574
 20
-338.756974
 10
177.217824
 20
-338.845222
 10
176.962777
 20
-338.948249
 10
176.600414
 20
-339.180233
 10
176.475322
 20
-339.418526
  0
LWPOLYLINE
  5
19B1
100
AcDbEntity
  8
VHH-025
100
AcDbPolyline
 90
       13
 70
     0
 43
0.0
 10
180.285367
 20
-341.861842
 10
179.995592
 20
-341.908136
 10
179.716292
 20
-341.971356
 10
179.460324
 20
-342.048548
 10
179.234796
 20
-342.13761
 10
178.913824
 20
-342.335395
 10
178.801991
 20
-342.534687
 10
178.831332
 20
-342.625562
 10
178.916311
 20
-342.705146
 10
179.054549
 20
-342.771249
 10
179.239701
 20
-342.820708
 10
179.722957
 20
-342.863534
 10
180.292886
 20
-342.82701
  0
LWPOLYLINE
  5
19B2
100
AcDbEntity
  8
VHH-025
100
AcDbPolyline
 90
       13
 70
     0
 43
0.0
 10
180.292886
 20
-342.82701
 10
180.582611
 20
-342.780392
 10
180.861859
 20
-342.716837
 10
181.117778
 20
-342.639354
 10
181.343269
 20
-342.550086
 10
181.664227
 20
-342.352256
 10
181.776131
 20
-342.153394
 10
181.746843
 20
-342.062843
 10
181.661918
 20
-341.98359
 10
181.523724
 20
-341.917781
 10
181.338602
 20
-341.868528
 10
180.855353
 20
-341.825751
 10
180.285367
 20
-341.861842
  0
LWPOLYLINE
  5
19B3
100
AcDbEntity
  8
VHH-025
100
AcDbPolyline
 90
        2
 70
     0
 43
0.0
 10
200.496774
 20
-335.399003
 10
178.153005
 20
-338.635308
  0
LWPOLYLINE
  5
19B4
100
AcDbEntity
  8
VHH-025
100
AcDbPolyline
 90
        7
 70
     0
 43
0.0
 10
202.177929
 20
-335.679996
 10
202.144368
 20
-335.575166
 10
202.047539
 20
-335.48509
 10
201.892283
 20
-335.413898
 10
201.682789
 20
-335.36347
 10
201.139175
 20
-335.333098
 10
200.496774
 20
-335.399003
  0
LINE
  5
19B5
100
AcDbEntity
  8
VHH-025
100
AcDbLine
 10
202.168244
 20
-335.623127
 30
0.0
 11
202.177929
 21
-335.679996
 31
0.0
  0
LINE
  5
19B6
100
AcDbEntity
  8
VHH-025
100
AcDbLine
 10
237.38956
 20
-332.0
 30
0.0
 11
251.038958
 21
-332.0
 31
0.0
  0
LWPOLYLINE
  5
19B7
100
AcDbEntity
  8
VHH-025
100
AcDbPolyline
 90
       17
 70
     0
 43
0.0
 10
216.458211
 20
-325.438479
 10
217.228841
 20
-325.22641
 10
217.597648
 20
-325.074418
 10
217.77688
 20
-324.987349
 10
217.952277
 20
-324.893077
 10
218.60095
 20
-324.454475
 10
218.900176
 20
-324.193879
 10
219.042426
 20
-324.053675
 10
219.111575
 20
-323.981158
 10
219.179353
 20
-323.907056
 10
219.645455
 20
-323.295042
 10
219.846433
 20
-322.952399
 10
219.93762
 20
-322.772391
 10
219.980726
 20
-322.680291
 10
220.001636
 20
-322.633727
 10
220.022109
 20
-322.586824
 10
220.40343
 20
-321.070264
  0
LWPOLYLINE
  5
19B8
100
AcDbEntity
  8
VHH-025
100
AcDbPolyline
 90
        7
 70
     0
 43
0.0
 10
218.603225
 20
-320.781111
 10
218.528908
 20
-321.26022
 10
218.383
 20
-321.721711
 10
218.166685
 20
-322.154928
 10
217.884099
 20
-322.54679
 10
217.144662
 20
-323.163177
 10
216.240698
 20
-323.494167
  0
LWPOLYLINE
  5
19B9
100
AcDbEntity
  8
VHH-025
100
AcDbPolyline
 90
       17
 70
     0
 43
0.0
 10
258.320908
 20
-325.438479
 10
257.550279
 20
-325.22641
 10
257.181471
 20
-325.074418
 10
257.002239
 20
-324.987349
 10
256.826843
 20
-324.893077
 10
256.178169
 20
-324.454475
 10
255.878943
 20
-324.193879
 10
255.736693
 20
-324.053675
 10
255.667545
 20
-323.981158
 10
255.599767
 20
-323.907056
 10
255.133664
 20
-323.295042
 10
254.932687
 20
-322.952399
 10
254.841499
 20
-322.772391
 10
254.798394
 20
-322.680291
 10
254.777484
 20
-322.633727
 10
254.757011
 20
-322.586824
 10
254.375689
 20
-321.070264
  0
LWPOLYLINE
  5
19BA
100
AcDbEntity
  8
VHH-025
100
AcDbPolyline
 90
        7
 70
     0
 43
0.0
 10
256.175894
 20
-320.781111
 10
256.250212
 20
-321.26022
 10
256.39612
 20
-321.721711
 10
256.612434
 20
-322.154928
 10
256.89502
 20
-322.54679
 10
257.634457
 20
-323.163177
 10
258.538421
 20
-323.494167
  0
CIRCLE
  5
19BB
100
AcDbEntity
  8
VHH-025
100
AcDbCircle
 10
318.690692
 20
-312.007599
 30
0.0
 40
2.204139
  0
LWPOLYLINE
  5
19BC
100
AcDbEntity
  8
VHH-025
100
AcDbPolyline
 90
        2
 70
     0
 43
0.0
 10
345.848855
 20
-307.22157
 10
318.776687
 20
-306.157187
  0
LWPOLYLINE
  5
19BD
100
AcDbEntity
  8
VHH-025
100
AcDbPolyline
 90
       12
 70
     0
 43
0.0
 10
312.390647
 20
-312.144755
 10
312.514178
 20
-310.93351
 10
312.667518
 20
-310.343146
 10
312.881647
 20
-309.767589
 10
313.474986
 20
-308.704367
 10
313.853305
 20
-308.218877
 10
314.277003
 20
-307.776926
 10
315.249216
 20
-307.032866
 10
316.353458
 20
-306.501187
 10
316.941085
 20
-306.32249
 10
317.54779
 20
-306.204251
 10
318.776687
 20
-306.157187
  0
LWPOLYLINE
  5
19BE
100
AcDbEntity
  8
VHH-025
100
AcDbPolyline
 90
        2
 70
     0
 43
0.0
 10
345.848855
 20
-331.217272
 10
318.776687
 20
-330.152889
  0
LWPOLYLINE
  5
19BF
100
AcDbEntity
  8
VHH-025
100
AcDbPolyline
 90
        2
 70
     0
 43
0.0
 10
291.603458
 20
-338.005269
 10
291.563427
 20
-338.240329
  0
LWPOLYLINE
  5
19C0
100
AcDbEntity
  8
VHH-025
100
AcDbPolyline
 90
        2
 70
     0
 43
0.0
 10
291.10678
 20
-337.939924
 10
291.142281
 20
-338.046001
  0
LWPOLYLINE
  5
19C1
100
AcDbEntity
  8
VHH-025
100
AcDbPolyline
 90
        2
 70
     0
 43
0.0
 10
291.563427
 20
-338.240329
 10
296.621707
 20
-338.876096
  0
LWPOLYLINE
  5
19C2
100
AcDbEntity
  8
VHH-025
100
AcDbPolyline
 90
        4
 70
     0
 43
0.0
 10
296.621707
 20
-338.876096
 10
297.001112
 20
-338.947681
 10
297.321726
 20
-339.060278
 10
297.608563
 20
-339.336903
  0
LWPOLYLINE
  5
19C3
100
AcDbEntity
  8
VHH-025
100
AcDbPolyline
 90
        7
 70
     0
 43
0.0
 10
296.626115
 20
-338.635308
 10
296.954878
 20
-338.685865
 10
297.271545
 20
-338.756974
 10
297.561296
 20
-338.845222
 10
297.816343
 20
-338.948249
 10
298.178706
 20
-339.180233
 10
298.303798
 20
-339.418526
  0
LWPOLYLINE
  5
19C4
100
AcDbEntity
  8
VHH-025
100
AcDbPolyline
 90
        4
 70
     0
 43
0.0
 10
312.390647
 20
-332.247411
 10
312.390647
 20
-331.917643
 10
312.390647
 20
-331.439353
 10
312.390647
 20
-330.232757
  0
LWPOLYLINE
  5
19C5
100
AcDbEntity
  8
VHH-025
100
AcDbPolyline
 90
       13
 70
     0
 43
0.0
 10
294.493753
 20
-341.861842
 10
294.783528
 20
-341.908136
 10
295.062828
 20
-341.971356
 10
295.318796
 20
-342.048548
 10
295.544323
 20
-342.13761
 10
295.865296
 20
-342.335395
 10
295.977129
 20
-342.534687
 10
295.947788
 20
-342.625562
 10
295.862809
 20
-342.705146
 10
295.724571
 20
-342.771249
 10
295.539419
 20
-342.820708
 10
295.056163
 20
-342.863534
 10
294.486234
 20
-342.82701
  0
LWPOLYLINE
  5
19C6
100
AcDbEntity
  8
VHH-025
100
AcDbPolyline
 90
       13
 70
     0
 43
0.0
 10
294.486234
 20
-342.82701
 10
294.196508
 20
-342.780392
 10
293.917261
 20
-342.716837
 10
293.661341
 20
-342.639354
 10
293.43585
 20
-342.550086
 10
293.114892
 20
-342.352256
 10
293.002989
 20
-342.153394
 10
293.032276
 20
-342.062843
 10
293.117202
 20
-341.98359
 10
293.255395
 20
-341.917781
 10
293.440518
 20
-341.868528
 10
293.923767
 20
-341.825751
 10
294.493753
 20
-341.861842
  0
LWPOLYLINE
  5
19C7
100
AcDbEntity
  8
VHH-025
100
AcDbPolyline
 90
        7
 70
     0
 43
0.0
 10
272.601191
 20
-335.679996
 10
272.634752
 20
-335.575166
 10
272.731581
 20
-335.48509
 10
272.886836
 20
-335.413898
 10
273.096331
 20
-335.36347
 10
273.639944
 20
-335.333098
 10
274.282346
 20
-335.399003
  0
LWPOLYLINE
  5
19C8
100
AcDbEntity
  8
VHH-025
100
AcDbPolyline
 90
        2
 70
     0
 43
0.0
 10
274.282346
 20
-335.399003
 10
296.626115
 20
-338.635308
  0
LINE
  5
19C9
100
AcDbEntity
  8
VHH-025
100
AcDbLine
 10
272.610876
 20
-335.623127
 30
0.0
 11
272.601191
 21
-335.679996
 31
0.0
  0
LWPOLYLINE
  5
19CA
100
AcDbEntity
  8
VHH-025
100
AcDbPolyline
 90
        2
 70
     0
 43
0.0
 10
312.390647
 20
-330.076085
 10
312.390647
 20
-312.144755
  0
LWPOLYLINE
  5
19CB
100
AcDbEntity
  8
VHH-025
100
AcDbPolyline
 90
        2
 70
     0
 43
0.0
 10
312.390647
 20
-330.232757
 10
312.390647
 20
-312.144755
  0
LWPOLYLINE
  5
19CC
100
AcDbEntity
  8
VHH-025
100
AcDbPolyline
 90
        2
 70
     0
 43
0.0
 10
255.990647
 20
-213.031032
 10
339.644583
 20
-213.039073
  0
LWPOLYLINE
  5
19CD
100
AcDbEntity
  8
VHH-025
100
AcDbPolyline
 90
        2
 70
     0
 43
0.0
 10
227.517444
 20
-218.158028
 10
227.49137
 20
-218.833978
  0
LWPOLYLINE
  5
19CE
100
AcDbEntity
  8
VHH-025
100
AcDbPolyline
 90
        3
 70
     0
 43
0.0
 10
225.509512
 20
-218.158028
 10
221.779517
 20
-218.158028
 10
218.788473
 20
-218.158028
  0
LWPOLYLINE
  5
19CF
100
AcDbEntity
  8
VHH-025
100
AcDbPolyline
 90
        5
 70
     0
 43
0.0
 10
227.517444
 20
-218.158028
 10
227.291356
 20
-218.158028
 10
226.845383
 20
-218.158028
 10
226.226237
 20
-218.158028
 10
225.509512
 20
-218.158028
  0
LWPOLYLINE
  5
19D0
100
AcDbEntity
  8
VHH-025
100
AcDbPolyline
 90
        2
 70
     0
 43
0.0
 10
247.261676
 20
-218.158028
 10
247.28775
 20
-218.833978
  0
LWPOLYLINE
  5
19D1
100
AcDbEntity
  8
VHH-025
100
AcDbPolyline
 90
        3
 70
     0
 43
0.0
 10
249.269608
 20
-218.158028
 10
252.999602
 20
-218.158028
 10
255.990647
 20
-218.158028
  0
LWPOLYLINE
  5
19D2
100
AcDbEntity
  8
VHH-025
100
AcDbPolyline
 90
        5
 70
     0
 43
0.0
 10
247.261676
 20
-218.158028
 10
247.487764
 20
-218.158028
 10
247.933736
 20
-218.158028
 10
248.552883
 20
-218.158028
 10
249.269608
 20
-218.158028
  0
LWPOLYLINE
  5
19D3
100
AcDbEntity
  8
VHH-025
100
AcDbPolyline
 90
        2
 70
     0
 43
0.0
 10
218.788473
 20
-213.031032
 10
218.788473
 20
-218.158028
  0
LWPOLYLINE
  5
19D4
100
AcDbEntity
  8
VHH-025
100
AcDbPolyline
 90
        2
 70
     0
 43
0.0
 10
255.990647
 20
-213.031032
 10
255.990647
 20
-218.158028
  0
LWPOLYLINE
  5
19D5
100
AcDbEntity
  8
VHH-025
100
AcDbPolyline
 90
        2
 70
     0
 43
0.0
 10
477.28775
 20
-218.833978
 10
479.492337
 20
-260.900015
  0
LWPOLYLINE
  5
19D6
100
AcDbEntity
  8
VHH-025
100
AcDbPolyline
 90
        3
 70
     0
 43
0.0
 10
481.947984
 20
-260.40696
 10
480.599421
 20
-238.717264
 10
479.269608
 20
-218.158028
  0
LWPOLYLINE
  5
19D7
100
AcDbEntity
  8
VHH-025
100
AcDbPolyline
 90
        3
 70
     0
 43
0.0
 10
455.511686
 20
-218.158028
 10
454.181873
 20
-238.717264
 10
452.833311
 20
-260.40696
  0
LWPOLYLINE
  5
19D8
100
AcDbEntity
  8
VHH-025
100
AcDbPolyline
 90
        2
 70
     0
 43
0.0
 10
455.288957
 20
-260.900015
 10
457.493545
 20
-218.833978
  0
LWPOLYLINE
  5
19D9
100
AcDbEntity
  8
VHH-025
100
AcDbPolyline
 90
        7
 70
     0
 43
0.0
 10
446.242873
 20
-323.494167
 10
432.771034
 20
-325.726136
 10
419.234051
 20
-327.590127
 10
405.632531
 20
-329.099371
 10
398.80769
 20
-329.724161
 10
395.389425
 20
-330.004519
 10
392.390647
 20
-330.232757
  0
CIRCLE
  5
19DA
100
AcDbEntity
  8
VHH-025
100
AcDbCircle
 10
386.086253
 20
-312.007599
 30
0.0
 40
2.204139
  0
LWPOLYLINE
  5
19DB
100
AcDbEntity
  8
VHH-025
100
AcDbPolyline
 90
       11
 70
     0
 43
0.0
 10
386.004607
 20
-306.157187
 10
387.229885
 20
-306.203739
 10
387.833
 20
-306.3207
 10
388.42396
 20
-306.49979
 10
389.526529
 20
-307.02946
 10
390.035356
 20
-307.378615
 10
390.501984
 20
-307.774755
 10
391.3033
 20
-308.700072
 10
391.898233
 20
-309.764314
 10
392.266595
 20
-310.930986
 10
392.390647
 20
-312.144755
  0
LWPOLYLINE
  5
19DC
100
AcDbEntity
  8
VHH-025
100
AcDbPolyline
 90
        2
 70
     0
 43
0.0
 10
352.390647
 20
-307.276471
 10
358.932439
 20
-307.22157
  0
LWPOLYLINE
  5
19DD
100
AcDbEntity
  8
VHH-025
100
AcDbPolyline
 90
        2
 70
     0
 43
0.0
 10
358.932439
 20
-307.22157
 10
386.004607
 20
-306.157187
  0
LWPOLYLINE
  5
19DE
100
AcDbEntity
  8
VHH-025
100
AcDbPolyline
 90
        4
 70
     0
 43
0.0
 10
392.390647
 20
-330.232757
 10
392.390647
 20
-330.85648
 10
392.390647
 20
-331.436364
 10
392.390647
 20
-332.247411
  0
LWPOLYLINE
  5
19DF
100
AcDbEntity
  8
VHH-025
100
AcDbPolyline
 90
        2
 70
     0
 43
0.0
 10
352.390647
 20
-331.272172
 10
358.932439
 20
-331.217272
  0
LWPOLYLINE
  5
19E0
100
AcDbEntity
  8
VHH-025
100
AcDbPolyline
 90
        2
 70
     0
 43
0.0
 10
358.932439
 20
-331.217272
 10
386.004607
 20
-330.152889
  0
LWPOLYLINE
  5
19E1
100
AcDbEntity
  8
VHH-025
100
AcDbPolyline
 90
        2
 70
     0
 43
0.0
 10
392.390647
 20
-330.076085
 10
392.390647
 20
-312.144755
  0
LWPOLYLINE
  5
19E2
100
AcDbEntity
  8
VHH-025
100
AcDbPolyline
 90
        2
 70
     0
 43
0.0
 10
392.390647
 20
-312.144755
 10
392.390647
 20
-330.232757
  0
LWPOLYLINE
  5
19E3
100
AcDbEntity
  8
VHH-025
100
AcDbPolyline
 90
        3
 70
     0
 43
0.0
 10
471.219631
 20
-260.900015
 10
472.277989
 20
-260.900015
 10
474.499871
 20
-260.900015
  0
LWPOLYLINE
  5
19E4
100
AcDbEntity
  8
VHH-025
100
AcDbPolyline
 90
        3
 70
     0
 43
0.0
 10
475.168648
 20
-260.900015
 10
474.774658
 20
-260.900015
 10
474.499871
 20
-260.900015
  0
LWPOLYLINE
  5
19E5
100
AcDbEntity
  8
VHH-025
100
AcDbPolyline
 90
        5
 70
     0
 43
0.0
 10
477.206591
 20
-260.900015
 10
477.026165
 20
-260.900015
 10
476.612106
 20
-260.900015
 10
475.981553
 20
-260.900015
 10
475.168648
 20
-260.900015
  0
LWPOLYLINE
  5
19E6
100
AcDbEntity
  8
VHH-025
100
AcDbPolyline
 90
        3
 70
     0
 43
0.0
 10
463.561664
 20
-260.900015
 10
462.503305
 20
-260.900015
 10
460.281424
 20
-260.900015
  0
LWPOLYLINE
  5
19E7
100
AcDbEntity
  8
VHH-025
100
AcDbPolyline
 90
        2
 70
     0
 43
0.0
 10
457.574703
 20
-260.900015
 10
455.288957
 20
-260.900015
  0
LWPOLYLINE
  5
19E8
100
AcDbEntity
  8
VHH-025
100
AcDbPolyline
 90
        5
 70
     0
 43
0.0
 10
459.612646
 20
-260.900015
 10
458.795672
 20
-260.900015
 10
458.16793
 20
-260.900015
 10
457.753452
 20
-260.900015
 10
457.574703
 20
-260.900015
  0
LWPOLYLINE
  5
19E9
100
AcDbEntity
  8
VHH-025
100
AcDbPolyline
 90
        3
 70
     0
 43
0.0
 10
460.281424
 20
-260.900015
 10
460.005858
 20
-260.900015
 10
459.612646
 20
-260.900015
  0
LWPOLYLINE
  5
19EA
100
AcDbEntity
  8
VHH-025
100
AcDbPolyline
 90
        4
 70
     0
 43
0.0
 10
474.515183
 20
-283.779169
 10
474.84743
 20
-284.497473
 10
475.113205
 20
-284.793098
 10
475.432544
 20
-285.030523
  0
LWPOLYLINE
  5
19EB
100
AcDbEntity
  8
VHH-025
100
AcDbPolyline
 90
        7
 70
     0
 43
0.0
 10
475.432544
 20
-285.030523
 10
476.382433
 20
-285.768176
 10
476.785854
 20
-286.219677
 10
477.13033
 20
-286.71428
 10
477.411929
 20
-287.245287
 10
477.629329
 20
-287.811206
 10
477.851028
 20
-288.996634
  0
LWPOLYLINE
  5
19EC
100
AcDbEntity
  8
VHH-025
100
AcDbPolyline
 90
        7
 70
     0
 43
0.0
 10
456.930266
 20
-288.996634
 10
457.150961
 20
-287.814388
 10
457.367671
 20
-287.24901
 10
457.649709
 20
-286.716337
 10
457.992917
 20
-286.222872
 10
458.39652
 20
-285.770498
 10
459.348751
 20
-285.030523
  0
LWPOLYLINE
  5
19ED
100
AcDbEntity
  8
VHH-025
100
AcDbPolyline
 90
        4
 70
     0
 43
0.0
 10
459.348751
 20
-285.030523
 10
459.933815
 20
-284.49754
 10
460.135824
 20
-284.155166
 10
460.266112
 20
-283.779169
  0
LWPOLYLINE
  5
19EE
100
AcDbEntity
  8
VHH-025
100
AcDbPolyline
 90
        7
 70
     0
 43
0.0
 10
481.947984
 20
-260.40696
 10
482.895455
 20
-275.403101
 10
483.39658
 20
-282.930982
 10
483.653986
 20
-286.701732
 10
483.915952
 20
-290.476778
 10
485.01012
 20
-305.61892
 10
486.175894
 20
-320.781111
  0
LWPOLYLINE
  5
19EF
100
AcDbEntity
  8
VHH-025
100
AcDbPolyline
 90
        5
 70
     0
 43
0.0
 10
471.219631
 20
-260.900015
 10
471.403398
 20
-263.787681
 10
471.653869
 20
-266.669884
 10
472.348562
 20
-272.414443
 10
474.515183
 20
-283.779169
  0
LWPOLYLINE
  5
19F0
100
AcDbEntity
  8
VHH-025
100
AcDbPolyline
 90
       10
 70
     0
 43
0.0
 10
474.499871
 20
-260.900015
 10
474.519231
 20
-261.302155
 10
474.544363
 20
-261.823216
 10
474.595068
 20
-262.869622
 10
474.62063
 20
-263.394101
 10
474.646253
 20
-263.917829
 10
474.697666
 20
-264.963027
 10
474.906304
 20
-269.128191
 10
475.12185
 20
-273.261293
 10
475.349905
 20
-277.349502
  0
LWPOLYLINE
  5
19F1
100
AcDbEntity
  8
VHH-025
100
AcDbPolyline
 90
        5
 70
     0
 43
0.0
 10
460.266112
 20
-283.779169
 10
462.432755
 20
-272.414283
 10
463.127444
 20
-266.669692
 10
463.3779
 20
-263.787633
 10
463.561664
 20
-260.900015
  0
LWPOLYLINE
  5
19F2
100
AcDbEntity
  8
VHH-025
100
AcDbPolyline
 90
        7
 70
     0
 43
0.0
 10
452.833311
 20
-260.40696
 10
451.885746
 20
-275.404655
 10
450.865687
 20
-290.471847
 10
450.328223
 20
-298.03127
 10
450.052572
 20
-301.816758
 10
449.77236
 20
-305.604732
 10
448.6054
 20
-320.781111
  0
LWPOLYLINE
  5
19F3
100
AcDbEntity
  8
VHH-025
100
AcDbPolyline
 90
       17
 70
     0
 43
0.0
 10
459.612646
 20
-260.900015
 10
459.521883
 20
-262.77242
 10
459.411544
 20
-265.003756
 10
459.380986
 20
-265.612499
 10
459.37708
 20
-265.690074
 10
459.373685
 20
-265.757453
 10
459.367064
 20
-265.888712
 10
459.353806
 20
-266.151074
 10
459.300527
 20
-267.198443
 10
459.192697
 20
-269.283106
 10
459.138122
 20
-270.319492
 10
459.131269
 20
-270.448695
 10
459.125194
 20
-270.563054
 10
459.113182
 20
-270.788649
 10
459.088639
 20
-271.247437
 10
458.983312
 20
-273.183353
 10
458.734118
 20
-277.532428
  0
LINE
  5
19F4
100
AcDbEntity
  8
VHH-025
100
AcDbLine
 10
471.219631
 20
-260.900015
 30
0.0
 11
467.38956
 21
-260.900015
 31
0.0
  0
LINE
  5
19F5
100
AcDbEntity
  8
VHH-025
100
AcDbLine
 10
463.561664
 20
-260.900015
 30
0.0
 11
467.389559
 21
-260.900015
 31
0.0
  0
LINE
  5
19F6
100
AcDbEntity
  8
VHH-025
100
AcDbLine
 10
479.492337
 20
-260.900015
 30
0.0
 11
477.206591
 21
-260.900015
 31
0.0
  0
LINE
  5
19F7
100
AcDbEntity
  8
VHH-025
100
AcDbLine
 10
453.742337
 20
-332.0
 30
0.0
 11
469.387385
 21
-332.0
 31
0.0
  0
LINE
  5
19F8
100
AcDbEntity
  8
VHH-025
100
AcDbLine
 10
465.391735
 20
-332.0
 30
0.0
 11
481.038958
 21
-332.0
 31
0.0
  0
LWPOLYLINE
  5
19F9
100
AcDbEntity
  8
VHH-025
100
AcDbPolyline
 90
        7
 70
     0
 43
0.0
 10
502.601191
 20
-335.679996
 10
502.634752
 20
-335.575166
 10
502.731581
 20
-335.48509
 10
502.886836
 20
-335.413898
 10
503.096331
 20
-335.36347
 10
503.639944
 20
-335.333098
 10
504.282346
 20
-335.399003
  0
LWPOLYLINE
  5
19FA
100
AcDbEntity
  8
VHH-025
100
AcDbPolyline
 90
        2
 70
     0
 43
0.0
 10
521.10678
 20
-337.939924
 10
521.142281
 20
-338.046001
  0
LWPOLYLINE
  5
19FB
100
AcDbEntity
  8
VHH-025
100
AcDbPolyline
 90
        2
 70
     0
 43
0.0
 10
521.603458
 20
-338.005269
 10
521.563427
 20
-338.240329
  0
LINE
  5
19FC
100
AcDbEntity
  8
VHH-025
100
AcDbLine
 10
502.610876
 20
-335.623127
 30
0.0
 11
502.601191
 21
-335.679996
 31
0.0
  0
LWPOLYLINE
  5
19FD
100
AcDbEntity
  8
VHH-025
100
AcDbPolyline
 90
        7
 70
     0
 43
0.0
 10
486.175894
 20
-320.781111
 10
486.250212
 20
-321.26022
 10
486.39612
 20
-321.721711
 10
486.612434
 20
-322.154928
 10
486.89502
 20
-322.54679
 10
487.634457
 20
-323.163177
 10
488.538421
 20
-323.494167
  0
LWPOLYLINE
  5
19FE
100
AcDbEntity
  8
VHH-025
100
AcDbPolyline
 90
       17
 70
     0
 43
0.0
 10
488.320908
 20
-325.438479
 10
487.550279
 20
-325.22641
 10
487.181471
 20
-325.074418
 10
487.002239
 20
-324.987349
 10
486.826843
 20
-324.893077
 10
486.178169
 20
-324.454475
 10
485.878943
 20
-324.193879
 10
485.736693
 20
-324.053675
 10
485.667545
 20
-323.981158
 10
485.599767
 20
-323.907056
 10
485.133664
 20
-323.295042
 10
484.932687
 20
-322.952399
 10
484.841499
 20
-322.772391
 10
484.798394
 20
-322.680291
 10
484.777484
 20
-322.633727
 10
484.757011
 20
-322.586824
 10
484.375689
 20
-321.070264
  0
LWPOLYLINE
  5
19FF
100
AcDbEntity
  8
VHH-025
100
AcDbPolyline
 90
       15
 70
     0
 43
0.0
 10
448.6054
 20
-320.781111
 10
448.530948
 20
-321.260797
 10
448.385098
 20
-321.7219
 10
448.337162
 20
-321.83412
 10
448.284982
 20
-321.943973
 10
448.168528
 20
-322.155477
 10
447.887234
 20
-322.545665
 10
447.806604
 20
-322.636219
 10
447.721877
 20
-322.72368
 10
447.543068
 20
-322.886265
 10
447.149564
 20
-323.161599
 10
447.043639
 20
-323.219949
 10
446.934631
 20
-323.273978
 10
446.710606
 20
-323.367359
 10
446.242873
 20
-323.494167
  0
LWPOLYLINE
  5
1A00
100
AcDbEntity
  8
VHH-025
100
AcDbPolyline
 90
       17
 70
     0
 43
0.0
 10
450.405605
 20
-321.070264
 10
450.267819
 20
-321.874136
 10
450.157237
 20
-322.242517
 10
450.093312
 20
-322.417734
 10
450.059406
 20
-322.50305
 10
450.041993
 20
-322.545131
 10
450.024283
 20
-322.586824
 10
449.647656
 20
-323.295
 10
449.424305
 20
-323.613517
 10
449.305165
 20
-323.763452
 10
449.243886
 20
-323.83605
 10
449.181527
 20
-323.907056
 10
448.603163
 20
-324.454445
 10
448.286346
 20
-324.687779
 10
448.122128
 20
-324.793976
 10
447.954452
 20
-324.893077
 10
446.460386
 20
-325.438479
  0
LWPOLYLINE
  5
1A01
100
AcDbEntity
  8
VHH-025
100
AcDbPolyline
 90
        2
 70
     0
 43
0.0
 10
365.136712
 20
-213.039073
 10
448.790647
 20
-213.031032
  0
LWPOLYLINE
  5
1A02
100
AcDbEntity
  8
VHH-025
100
AcDbPolyline
 90
        4
 70
     0
 43
0.0
 10
352.390647
 20
-213.038884
 10
355.604409
 20
-213.038968
 10
358.818171
 20
-213.039027
 10
365.136712
 20
-213.039073
  0
LWPOLYLINE
  5
1A03
100
AcDbEntity
  8
VHH-025
100
AcDbPolyline
 90
        5
 70
     0
 43
0.0
 10
477.261676
 20
-218.158028
 10
477.487764
 20
-218.158028
 10
477.933736
 20
-218.158028
 10
478.552883
 20
-218.158028
 10
479.269608
 20
-218.158028
  0
LWPOLYLINE
  5
1A04
100
AcDbEntity
  8
VHH-025
100
AcDbPolyline
 90
        3
 70
     0
 43
0.0
 10
479.269608
 20
-218.158028
 10
482.999602
 20
-218.158028
 10
485.990647
 20
-218.158028
  0
LWPOLYLINE
  5
1A05
100
AcDbEntity
  8
VHH-025
100
AcDbPolyline
 90
        2
 70
     0
 43
0.0
 10
477.261676
 20
-218.158028
 10
477.28775
 20
-218.833978
  0
LWPOLYLINE
  5
1A06
100
AcDbEntity
  8
VHH-025
100
AcDbPolyline
 90
        3
 70
     0
 43
0.0
 10
448.790647
 20
-218.158028
 10
452.520646
 20
-218.158028
 10
455.511686
 20
-218.158028
  0
LWPOLYLINE
  5
1A07
100
AcDbEntity
  8
VHH-025
100
AcDbPolyline
 90
        7
 70
     0
 43
0.0
 10
455.511686
 20
-218.158028
 10
456.229483
 20
-218.158028
 10
456.55564
 20
-218.158028
 10
456.848029
 20
-218.158028
 10
457.095209
 20
-218.158028
 10
457.293495
 20
-218.158028
 10
457.519615
 20
-218.158028
  0
LWPOLYLINE
  5
1A08
100
AcDbEntity
  8
VHH-025
100
AcDbPolyline
 90
        2
 70
     0
 43
0.0
 10
457.493545
 20
-218.833978
 10
457.519615
 20
-218.158028
  0
LWPOLYLINE
  5
1A09
100
AcDbEntity
  8
VHH-025
100
AcDbPolyline
 90
        2
 70
     0
 43
0.0
 10
485.990647
 20
-213.031032
 10
485.990647
 20
-218.158028
  0
LWPOLYLINE
  5
1A0A
100
AcDbEntity
  8
VHH-025
100
AcDbPolyline
 90
        2
 70
     0
 43
0.0
 10
448.790647
 20
-218.158028
 10
448.790647
 20
-213.031032
  0
LWPOLYLINE
  5
1A0B
100
AcDbEntity
  8
VHH-025
100
AcDbPolyline
 90
        2
 70
     0
 43
0.0
 10
352.38956
 20
-19.665356
 10
312.88956
 20
-19.545375
  0
LWPOLYLINE
  5
1A0C
100
AcDbEntity
  8
VHH-025
100
AcDbPolyline
 90
        2
 70
     0
 43
0.0
 10
312.88956
 20
-10.785337
 10
352.38956
 20
-10.665356
  0
LINE
  5
1A0D
100
AcDbEntity
  8
VHH-025
100
AcDbLine
 10
237.38956
 20
0.0
 30
0.0
 11
469.387385
 21
0.0
 31
0.0
  0
CIRCLE
  5
1A0E
100
AcDbEntity
  8
VHH-025
100
AcDbCircle
 10
352.38956
 20
-60.0
 30
0.0
 40
10.0
  0
CIRCLE
  5
1A0F
100
AcDbEntity
  8
VHH-025
100
AcDbCircle
 10
352.38956
 20
-60.0
 30
0.0
 40
12.0
  0
INSERT
  5
1A10
100
AcDbEntity
  8
VHH-050
100
AcDbBlockReference
  2
A$C605007EB
 10
339.862833
 20
-53.951477
 30
0.0
  0
LWPOLYLINE
  5
1A11
100
AcDbEntity
  8
VHH-025
100
AcDbPolyline
 90
       17
 70
     0
 43
0.0
 10
311.88956
 20
-18.142877
 10
311.88956
 20
-18.107664
 10
311.88956
 20
-17.936785
 10
311.88956
 20
-17.659445
 10
311.88956
 20
-17.28616
 10
311.88956
 20
-16.831589
 10
311.88956
 20
-16.312901
 10
311.88956
 20
-15.750385
 10
311.88956
 20
-15.165356
 10
311.88956
 20
-14.580328
 10
311.88956
 20
-14.017812
 10
311.88956
 20
-13.499124
 10
311.88956
 20
-13.044553
 10
311.88956
 20
-12.671268
 10
311.88956
 20
-12.393928
 10
311.88956
 20
-12.223049
 10
311.88956
 20
-12.187836
  0
LWPOLYLINE
  5
1A12
100
AcDbEntity
  8
VHH-025
100
AcDbPolyline
 90
       17
 70
     0
 43
0.0
 10
312.88956
 20
-12.187836
 10
312.88956
 20
-12.223046
 10
312.88956
 20
-12.393918
 10
312.88956
 20
-12.671252
 10
312.88956
 20
-13.044528
 10
312.88956
 20
-13.499101
 10
312.88956
 20
-14.017787
 10
312.88956
 20
-14.580316
 10
312.88956
 20
-15.165356
 10
312.88956
 20
-15.750397
 10
312.88956
 20
-16.312926
 10
312.88956
 20
-16.831612
 10
312.88956
 20
-17.286185
 10
312.88956
 20
-17.659461
 10
312.88956
 20
-17.936795
 10
312.88956
 20
-18.107666
 10
312.88956
 20
-18.142877
  0
LINE
  5
1A13
100
AcDbEntity
  8
VHH-025
100
AcDbLine
 10
264.88956
 20
-12.697285
 30
0.0
 11
264.88956
 21
-17.633427
 31
0.0
  0
LINE
  5
1A14
100
AcDbEntity
  8
VHH-025
100
AcDbLine
 10
209.88956
 20
-12.697285
 30
0.0
 11
209.88956
 21
-17.633427
 31
0.0
  0
LWPOLYLINE
  5
1A15
100
AcDbEntity
  8
VHH-025
100
AcDbPolyline
 90
        5
 70
     0
 43
0.0
 10
209.88956
 20
-17.633427
 10
209.779539
 20
-18.188349
 10
209.470371
 20
-18.652775
 10
208.999538
 20
-18.972359
 10
208.405069
 20
-19.097699
  0
LWPOLYLINE
  5
1A16
100
AcDbEntity
  8
VHH-025
100
AcDbPolyline
 90
        2
 70
     0
 43
0.0
 10
311.88956
 20
-19.539228
 10
311.88956
 20
-18.142877
  0
LWPOLYLINE
  5
1A17
100
AcDbEntity
  8
VHH-025
100
AcDbPolyline
 90
        2
 70
     0
 43
0.0
 10
312.88956
 20
-18.142877
 10
312.88956
 20
-19.545375
  0
LWPOLYLINE
  5
1A18
100
AcDbEntity
  8
VHH-025
100
AcDbPolyline
 90
        5
 70
     0
 43
0.0
 10
264.88956
 20
-17.633427
 10
264.999581
 20
-18.188349
 10
265.308749
 20
-18.652775
 10
265.779581
 20
-18.972359
 10
266.374051
 20
-19.097699
  0
LWPOLYLINE
  5
1A19
100
AcDbEntity
  8
VHH-025
100
AcDbPolyline
 90
        2
 70
     0
 43
0.0
 10
311.88956
 20
-19.539228
 10
266.374051
 20
-19.097699
  0
LINE
  5
1A1A
100
AcDbEntity
  8
VHH-025
100
AcDbLine
 10
312.88956
 20
-19.045356
 30
0.0
 11
311.88956
 21
-19.045356
 31
0.0
  0
LWPOLYLINE
  5
1A1B
100
AcDbEntity
  8
VHH-025
100
AcDbPolyline
 90
        5
 70
     0
 43
0.0
 10
208.405069
 20
-11.233013
 10
209.003708
 20
-11.360151
 10
209.48458
 20
-11.692476
 10
209.789107
 20
-12.166053
 10
209.88956
 20
-12.697285
  0
LWPOLYLINE
  5
1A1C
100
AcDbEntity
  8
VHH-025
100
AcDbPolyline
 90
        2
 70
     0
 43
0.0
 10
311.88956
 20
-12.187836
 10
311.88956
 20
-10.791485
  0
LWPOLYLINE
  5
1A1D
100
AcDbEntity
  8
VHH-025
100
AcDbPolyline
 90
        2
 70
     0
 43
0.0
 10
312.88956
 20
-10.785337
 10
312.88956
 20
-12.187836
  0
LWPOLYLINE
  5
1A1E
100
AcDbEntity
  8
VHH-025
100
AcDbPolyline
 90
        5
 70
     0
 43
0.0
 10
266.374051
 20
-11.233013
 10
265.775412
 20
-11.360151
 10
265.294539
 20
-11.692476
 10
264.990012
 20
-12.166053
 10
264.88956
 20
-12.697285
  0
LWPOLYLINE
  5
1A1F
100
AcDbEntity
  8
VHH-025
100
AcDbPolyline
 90
        2
 70
     0
 43
0.0
 10
266.374051
 20
-11.233013
 10
311.88956
 20
-10.791485
  0
LINE
  5
1A20
100
AcDbEntity
  8
VHH-025
100
AcDbLine
 10
311.88956
 20
-11.285356
 30
0.0
 11
312.88956
 21
-11.285356
 31
0.0
  0
LINE
  5
1A21
100
AcDbEntity
  8
VHH-025
100
AcDbLine
 10
439.88956
 20
-12.697285
 30
0.0
 11
439.88956
 21
-17.633427
 31
0.0
  0
LINE
  5
1A22
100
AcDbEntity
  8
VHH-025
100
AcDbLine
 10
494.88956
 20
-12.697285
 30
0.0
 11
494.88956
 21
-17.633427
 31
0.0
  0
LWPOLYLINE
  5
1A23
100
AcDbEntity
  8
VHH-025
100
AcDbPolyline
 90
       17
 70
     0
 43
0.0
 10
391.88956
 20
-18.142877
 10
391.88956
 20
-18.107666
 10
391.88956
 20
-17.936795
 10
391.88956
 20
-17.659461
 10
391.88956
 20
-17.286185
 10
391.88956
 20
-16.831612
 10
391.88956
 20
-16.312926
 10
391.88956
 20
-15.750397
 10
391.88956
 20
-15.165356
 10
391.88956
 20
-14.580316
 10
391.88956
 20
-14.017787
 10
391.88956
 20
-13.499101
 10
391.88956
 20
-13.044528
 10
391.88956
 20
-12.671252
 10
391.88956
 20
-12.393918
 10
391.88956
 20
-12.223046
 10
391.88956
 20
-12.187836
  0
LWPOLYLINE
  5
1A24
100
AcDbEntity
  8
VHH-025
100
AcDbPolyline
 90
       17
 70
     0
 43
0.0
 10
392.88956
 20
-12.187836
 10
392.88956
 20
-12.223049
 10
392.88956
 20
-12.393928
 10
392.88956
 20
-12.671268
 10
392.88956
 20
-13.044553
 10
392.88956
 20
-13.499124
 10
392.88956
 20
-14.017812
 10
392.88956
 20
-14.580328
 10
392.88956
 20
-15.165356
 10
392.88956
 20
-15.750385
 10
392.88956
 20
-16.312901
 10
392.88956
 20
-16.831589
 10
392.88956
 20
-17.28616
 10
392.88956
 20
-17.659445
 10
392.88956
 20
-17.936785
 10
392.88956
 20
-18.107664
 10
392.88956
 20
-18.142877
  0
LWPOLYLINE
  5
1A25
100
AcDbEntity
  8
VHH-025
100
AcDbPolyline
 90
        2
 70
     0
 43
0.0
 10
438.405069
 20
-19.097699
 10
392.88956
 20
-19.539228
  0
LWPOLYLINE
  5
1A26
100
AcDbEntity
  8
VHH-025
100
AcDbPolyline
 90
        2
 70
     0
 43
0.0
 10
391.88956
 20
-19.545375
 10
391.88956
 20
-18.142877
  0
LWPOLYLINE
  5
1A27
100
AcDbEntity
  8
VHH-025
100
AcDbPolyline
 90
        2
 70
     0
 43
0.0
 10
392.88956
 20
-18.142877
 10
392.88956
 20
-19.539228
  0
LWPOLYLINE
  5
1A28
100
AcDbEntity
  8
VHH-025
100
AcDbPolyline
 90
        2
 70
     0
 43
0.0
 10
391.88956
 20
-19.545375
 10
352.38956
 20
-19.665356
  0
LINE
  5
1A29
100
AcDbEntity
  8
VHH-025
100
AcDbLine
 10
348.101909
 20
-54.07357
 30
0.0
 11
349.400947
 21
-53.32357
 31
0.0
  0
LINE
  5
1A2A
100
AcDbEntity
  8
VHH-025
100
AcDbLine
 10
347.918896
 20
-54.756583
 30
0.0
 11
354.69516
 21
-66.493417
 31
0.0
  0
ARC
  5
1A2B
100
AcDbEntity
  8
VHH-025
100
AcDbCircle
 10
348.351909
 20
-54.506583
 30
0.0
 40
0.5
100
AcDbArc
 50
120.0
 51
210.0
  0
ARC
  5
1A2C
100
AcDbEntity
  8
VHH-025
100
AcDbCircle
 10
355.128173
 20
-66.243417
 30
0.0
 40
0.5
100
AcDbArc
 50
210.0
 51
300.0
  0
LINE
  5
1A2D
100
AcDbEntity
  8
VHH-025
100
AcDbLine
 10
355.378173
 20
-66.67643
 30
0.0
 11
356.677211
 21
-65.92643
 31
0.0
  0
ARC
  5
1A2E
100
AcDbEntity
  8
VHH-025
100
AcDbCircle
 10
356.427211
 20
-65.493417
 30
0.0
 40
0.5
100
AcDbArc
 50
300.0
 51
30.0
  0
LINE
  5
1A2F
100
AcDbEntity
  8
VHH-025
100
AcDbLine
 10
350.083959
 20
-53.506583
 30
0.0
 11
356.860224
 21
-65.243417
 31
0.0
  0
ARC
  5
1A30
100
AcDbEntity
  8
VHH-025
100
AcDbCircle
 10
349.650947
 20
-53.756583
 30
0.0
 40
0.5
100
AcDbArc
 50
30.0
 51
120.0
  0
LINE
  5
1A31
100
AcDbEntity
  8
VHH-025
100
AcDbLine
 10
392.88956
 20
-19.045356
 30
0.0
 11
391.88956
 21
-19.045356
 31
0.0
  0
LWPOLYLINE
  5
1A32
100
AcDbEntity
  8
VHH-025
100
AcDbPolyline
 90
        5
 70
     0
 43
0.0
 10
494.88956
 20
-17.633427
 10
494.999581
 20
-18.188349
 10
495.308749
 20
-18.652775
 10
495.779581
 20
-18.972359
 10
496.374051
 20
-19.097699
  0
LWPOLYLINE
  5
1A33
100
AcDbEntity
  8
VHH-025
100
AcDbPolyline
 90
        5
 70
     0
 43
0.0
 10
438.405069
 20
-19.097699
 10
439.003707
 20
-18.970563
 10
439.484578
 20
-18.638239
 10
439.789106
 20
-18.164663
 10
439.88956
 20
-17.633427
  0
LWPOLYLINE
  5
1A34
100
AcDbEntity
  8
VHH-025
100
AcDbPolyline
 90
        2
 70
     0
 43
0.0
 10
392.88956
 20
-10.791485
 10
438.405069
 20
-11.233013
  0
LINE
  5
1A35
100
AcDbEntity
  8
VHH-025
100
AcDbLine
 10
415.261193
 20
12.0
 30
0.0
 11
398.261193
 21
12.0
 31
0.0
  0
LINE
  5
1A36
100
AcDbEntity
  8
VHH-025
100
AcDbLine
 10
419.761193
 20
7.2
 30
0.0
 11
393.761193
 21
7.2
 31
0.0
  0
LINE
  5
1A37
100
AcDbEntity
  8
VHH-025
100
AcDbLine
 10
398.261193
 20
7.2
 30
0.0
 11
398.261193
 21
12.0
 31
0.0
  0
LINE
  5
1A38
100
AcDbEntity
  8
VHH-025
100
AcDbLine
 10
406.761193
 20
7.2
 30
0.0
 11
406.761193
 21
12.0
 31
0.0
  0
LINE
  5
1A39
100
AcDbEntity
  8
VHH-025
100
AcDbLine
 10
415.261193
 20
7.2
 30
0.0
 11
415.261193
 21
12.0
 31
0.0
  0
LWPOLYLINE
  5
1A3A
100
AcDbEntity
  8
VHH-025
100
AcDbPolyline
 90
        2
 70
     0
 43
0.0
 10
391.88956
 20
-12.187836
 10
391.88956
 20
-10.785337
  0
LWPOLYLINE
  5
1A3B
100
AcDbEntity
  8
VHH-025
100
AcDbPolyline
 90
        2
 70
     0
 43
0.0
 10
392.88956
 20
-10.791485
 10
392.88956
 20
-12.187836
  0
LWPOLYLINE
  5
1A3C
100
AcDbEntity
  8
VHH-025
100
AcDbPolyline
 90
        2
 70
     0
 43
0.0
 10
352.38956
 20
-10.665356
 10
391.88956
 20
-10.785337
  0
LINE
  5
1A3D
100
AcDbEntity
  8
VHH-025
100
AcDbLine
 10
391.88956
 20
-11.285356
 30
0.0
 11
392.88956
 21
-11.285356
 31
0.0
  0
LINE
  5
1A3E
100
AcDbEntity
  8
VHH-025
100
AcDbLine
 10
419.761193
 20
0.0
 30
0.0
 11
419.761193
 21
7.2
 31
0.0
  0
LINE
  5
1A3F
100
AcDbEntity
  8
VHH-025
100
AcDbLine
 10
393.761193
 20
0.0
 30
0.0
 11
393.761193
 21
7.2
 31
0.0
  0
INSERT
  5
1A40
100
AcDbEntity
  8
VHH-050
100
AcDbBlockReference
  2
A$C7A7B4A19
 10
389.083525
 20
-5.677671
 30
0.0
 41
-1.0
 50
270.0
  0
LWPOLYLINE
  5
1A41
100
AcDbEntity
  8
VHH-025
100
AcDbPolyline
 90
        5
 70
     0
 43
0.0
 10
496.374051
 20
-11.233013
 10
495.775412
 20
-11.360151
 10
495.294539
 20
-11.692476
 10
494.990012
 20
-12.166053
 10
494.88956
 20
-12.697285
  0
LWPOLYLINE
  5
1A42
100
AcDbEntity
  8
VHH-025
100
AcDbPolyline
 90
        5
 70
     0
 43
0.0
 10
439.88956
 20
-12.697285
 10
439.779539
 20
-12.142364
 10
439.470371
 20
-11.677938
 10
438.999538
 20
-11.358353
 10
438.405069
 20
-11.233013
  0
LINE
  5
1A43
100
AcDbEntity
  8
VHH-025
100
AcDbLine
 10
679.289559
 20
-218.158028
 30
0.0
 11
679.289559
 21
0.0
 31
0.0
  0
LINE
  5
1A44
100
AcDbEntity
  8
VHH-025
100
AcDbLine
 10
699.387385
 20
-332.0
 30
0.0
 11
699.387385
 21
0.0
 31
0.0
  0
LINE
  5
1A45
100
AcDbEntity
  8
VHH-025
100
AcDbLine
 10
697.389559
 20
-332.0
 30
0.0
 11
697.389559
 21
0.0
 31
0.0
  0
LINE
  5
1A46
100
AcDbEntity
  8
VHH-025
100
AcDbLine
 10
693.561664
 20
-260.900015
 30
0.0
 11
697.389559
 21
-260.900015
 31
0.0
  0
LINE
  5
1A47
100
AcDbEntity
  8
VHH-025
100
AcDbLine
 10
683.742337
 20
-332.0
 30
0.0
 11
699.387385
 21
-332.0
 31
0.0
  0
LWPOLYLINE
  5
1A48
100
AcDbEntity
  8
VHH-025
100
AcDbPolyline
 90
        2
 70
     0
 43
0.0
 10
685.288957
 20
-260.900015
 10
687.493545
 20
-218.833978
  0
LWPOLYLINE
  5
1A49
100
AcDbEntity
  8
VHH-025
100
AcDbPolyline
 90
        3
 70
     0
 43
0.0
 10
685.511686
 20
-218.158028
 10
684.181873
 20
-238.717264
 10
682.833311
 20
-260.40696
  0
LWPOLYLINE
  5
1A4A
100
AcDbEntity
  8
VHH-025
100
AcDbPolyline
 90
        2
 70
     0
 43
0.0
 10
588.932439
 20
-307.22157
 10
616.004607
 20
-306.157187
  0
LWPOLYLINE
  5
1A4B
100
AcDbEntity
  8
VHH-025
100
AcDbPolyline
 90
        2
 70
     0
 43
0.0
 10
588.932439
 20
-331.217272
 10
616.004607
 20
-330.152889
  0
CIRCLE
  5
1A4C
100
AcDbEntity
  8
VHH-025
100
AcDbCircle
 10
548.690692
 20
-312.007599
 30
0.0
 40
2.204139
  0
LWPOLYLINE
  5
1A4D
100
AcDbEntity
  8
VHH-025
100
AcDbPolyline
 90
        2
 70
     0
 43
0.0
 10
582.390647
 20
-307.276471
 10
588.932439
 20
-307.22157
  0
LWPOLYLINE
  5
1A4E
100
AcDbEntity
  8
VHH-025
100
AcDbPolyline
 90
        2
 70
     0
 43
0.0
 10
582.390647
 20
-307.276471
 10
575.848855
 20
-307.22157
  0
LWPOLYLINE
  5
1A4F
100
AcDbEntity
  8
VHH-025
100
AcDbPolyline
 90
       12
 70
     0
 43
0.0
 10
542.390647
 20
-312.144755
 10
542.514178
 20
-310.93351
 10
542.667518
 20
-310.343146
 10
542.881647
 20
-309.767589
 10
543.474986
 20
-308.704367
 10
543.853305
 20
-308.218877
 10
544.277003
 20
-307.776926
 10
545.249216
 20
-307.032866
 10
546.353458
 20
-306.501187
 10
546.941085
 20
-306.32249
 10
547.54779
 20
-306.204251
 10
548.776687
 20
-306.157187
  0
LWPOLYLINE
  5
1A50
100
AcDbEntity
  8
VHH-025
100
AcDbPolyline
 90
        2
 70
     0
 43
0.0
 10
575.848855
 20
-307.22157
 10
548.776687
 20
-306.157187
  0
LWPOLYLINE
  5
1A51
100
AcDbEntity
  8
VHH-025
100
AcDbPolyline
 90
        2
 70
     0
 43
0.0
 10
582.390647
 20
-331.272172
 10
588.932439
 20
-331.217272
  0
LWPOLYLINE
  5
1A52
100
AcDbEntity
  8
VHH-025
100
AcDbPolyline
 90
        2
 70
     0
 43
0.0
 10
582.390647
 20
-331.272172
 10
575.848855
 20
-331.217272
  0
LWPOLYLINE
  5
1A53
100
AcDbEntity
  8
VHH-025
100
AcDbPolyline
 90
       13
 70
     0
 43
0.0
 10
524.486234
 20
-342.82701
 10
524.196508
 20
-342.780392
 10
523.917261
 20
-342.716837
 10
523.661341
 20
-342.639354
 10
523.43585
 20
-342.550086
 10
523.114892
 20
-342.352256
 10
523.002989
 20
-342.153394
 10
523.032276
 20
-342.062843
 10
523.117202
 20
-341.98359
 10
523.255395
 20
-341.917781
 10
523.440518
 20
-341.868528
 10
523.923767
 20
-341.825751
 10
524.493753
 20
-341.861842
  0
LWPOLYLINE
  5
1A54
100
AcDbEntity
  8
VHH-025
100
AcDbPolyline
 90
       13
 70
     0
 43
0.0
 10
524.493753
 20
-341.861842
 10
524.783528
 20
-341.908136
 10
525.062828
 20
-341.971356
 10
525.318796
 20
-342.048548
 10
525.544323
 20
-342.13761
 10
525.865296
 20
-342.335395
 10
525.977129
 20
-342.534687
 10
525.947788
 20
-342.625562
 10
525.862809
 20
-342.705146
 10
525.724571
 20
-342.771249
 10
525.539419
 20
-342.820708
 10
525.056163
 20
-342.863534
 10
524.486234
 20
-342.82701
  0
LWPOLYLINE
  5
1A55
100
AcDbEntity
  8
VHH-025
100
AcDbPolyline
 90
        4
 70
     0
 43
0.0
 10
542.390647
 20
-332.247411
 10
542.390647
 20
-331.917643
 10
542.390647
 20
-331.439353
 10
542.390647
 20
-330.232757
  0
LWPOLYLINE
  5
1A56
100
AcDbEntity
  8
VHH-025
100
AcDbPolyline
 90
        7
 70
     0
 43
0.0
 10
526.626115
 20
-338.635308
 10
526.954878
 20
-338.685865
 10
527.271545
 20
-338.756974
 10
527.561296
 20
-338.845222
 10
527.816343
 20
-338.948249
 10
528.178706
 20
-339.180233
 10
528.303798
 20
-339.418526
  0
LWPOLYLINE
  5
1A57
100
AcDbEntity
  8
VHH-025
100
AcDbPolyline
 90
        4
 70
     0
 43
0.0
 10
526.621707
 20
-338.876096
 10
527.001112
 20
-338.947681
 10
527.321726
 20
-339.060278
 10
527.608563
 20
-339.336903
  0
LWPOLYLINE
  5
1A58
100
AcDbEntity
  8
VHH-025
100
AcDbPolyline
 90
        2
 70
     0
 43
0.0
 10
575.848855
 20
-331.217272
 10
548.776687
 20
-330.152889
  0
LWPOLYLINE
  5
1A59
100
AcDbEntity
  8
VHH-025
100
AcDbPolyline
 90
        2
 70
     0
 43
0.0
 10
542.390647
 20
-330.232757
 10
542.390647
 20
-312.144755
  0
LWPOLYLINE
  5
1A5A
100
AcDbEntity
  8
VHH-025
100
AcDbPolyline
 90
        2
 70
     0
 43
0.0
 10
542.390647
 20
-330.076085
 10
542.390647
 20
-312.144755
  0
CIRCLE
  5
1A5B
100
AcDbEntity
  8
VHH-025
100
AcDbCircle
 10
616.086253
 20
-312.007599
 30
0.0
 40
2.204139
  0
LWPOLYLINE
  5
1A5C
100
AcDbEntity
  8
VHH-025
100
AcDbPolyline
 90
       11
 70
     0
 43
0.0
 10
616.004607
 20
-306.157187
 10
617.229885
 20
-306.203739
 10
617.833
 20
-306.3207
 10
618.42396
 20
-306.49979
 10
619.526529
 20
-307.02946
 10
620.035356
 20
-307.378615
 10
620.501984
 20
-307.774755
 10
621.3033
 20
-308.700072
 10
621.898233
 20
-309.764314
 10
622.266595
 20
-310.930986
 10
622.390647
 20
-312.144755
  0
LWPOLYLINE
  5
1A5D
100
AcDbEntity
  8
VHH-025
100
AcDbPolyline
 90
        3
 70
     0
 43
0.0
 10
690.281424
 20
-260.900015
 10
690.005858
 20
-260.900015
 10
689.612646
 20
-260.900015
  0
LWPOLYLINE
  5
1A5E
100
AcDbEntity
  8
VHH-025
100
AcDbPolyline
 90
        5
 70
     0
 43
0.0
 10
689.612646
 20
-260.900015
 10
688.795672
 20
-260.900015
 10
688.16793
 20
-260.900015
 10
687.753452
 20
-260.900015
 10
687.574703
 20
-260.900015
  0
LWPOLYLINE
  5
1A5F
100
AcDbEntity
  8
VHH-025
100
AcDbPolyline
 90
        2
 70
     0
 43
0.0
 10
687.574703
 20
-260.900015
 10
685.288957
 20
-260.900015
  0
LWPOLYLINE
  5
1A60
100
AcDbEntity
  8
VHH-025
100
AcDbPolyline
 90
        3
 70
     0
 43
0.0
 10
693.561664
 20
-260.900015
 10
692.503305
 20
-260.900015
 10
690.281424
 20
-260.900015
  0
LWPOLYLINE
  5
1A61
100
AcDbEntity
  8
VHH-025
100
AcDbPolyline
 90
        4
 70
     0
 43
0.0
 10
689.348751
 20
-285.030523
 10
689.933815
 20
-284.49754
 10
690.135824
 20
-284.155166
 10
690.266112
 20
-283.779169
  0
LWPOLYLINE
  5
1A62
100
AcDbEntity
  8
VHH-025
100
AcDbPolyline
 90
        7
 70
     0
 43
0.0
 10
686.930266
 20
-288.996634
 10
687.150961
 20
-287.814388
 10
687.367671
 20
-287.24901
 10
687.649709
 20
-286.716337
 10
687.992917
 20
-286.222872
 10
688.39652
 20
-285.770498
 10
689.348751
 20
-285.030523
  0
LWPOLYLINE
  5
1A63
100
AcDbEntity
  8
VHH-025
100
AcDbPolyline
 90
       17
 70
     0
 43
0.0
 10
689.612646
 20
-260.900015
 10
689.521883
 20
-262.77242
 10
689.411544
 20
-265.003756
 10
689.380986
 20
-265.612499
 10
689.37708
 20
-265.690074
 10
689.373685
 20
-265.757453
 10
689.367064
 20
-265.888712
 10
689.353806
 20
-266.151074
 10
689.300527
 20
-267.198443
 10
689.192697
 20
-269.283106
 10
689.138122
 20
-270.319492
 10
689.131269
 20
-270.448695
 10
689.125194
 20
-270.563054
 10
689.113182
 20
-270.788649
 10
689.088639
 20
-271.247437
 10
688.983312
 20
-273.183353
 10
688.734118
 20
-277.532428
  0
LWPOLYLINE
  5
1A64
100
AcDbEntity
  8
VHH-025
100
AcDbPolyline
 90
        7
 70
     0
 43
0.0
 10
682.833311
 20
-260.40696
 10
681.885746
 20
-275.404655
 10
680.865687
 20
-290.471847
 10
680.328223
 20
-298.03127
 10
680.052572
 20
-301.816758
 10
679.77236
 20
-305.604732
 10
678.6054
 20
-320.781111
  0
LWPOLYLINE
  5
1A65
100
AcDbEntity
  8
VHH-025
100
AcDbPolyline
 90
        5
 70
     0
 43
0.0
 10
690.266112
 20
-283.779169
 10
692.432755
 20
-272.414283
 10
693.127444
 20
-266.669692
 10
693.3779
 20
-263.787633
 10
693.561664
 20
-260.900015
  0
LWPOLYLINE
  5
1A66
100
AcDbEntity
  8
VHH-025
100
AcDbPolyline
 90
        7
 70
     0
 43
0.0
 10
676.242873
 20
-323.494167
 10
662.771034
 20
-325.726136
 10
649.234051
 20
-327.590127
 10
635.632531
 20
-329.099371
 10
628.80769
 20
-329.724161
 10
625.389425
 20
-330.004519
 10
622.390647
 20
-330.232757
  0
LWPOLYLINE
  5
1A67
100
AcDbEntity
  8
VHH-025
100
AcDbPolyline
 90
        4
 70
     0
 43
0.0
 10
622.390647
 20
-330.232757
 10
622.390647
 20
-330.85648
 10
622.390647
 20
-331.436364
 10
622.390647
 20
-332.247411
  0
LWPOLYLINE
  5
1A68
100
AcDbEntity
  8
VHH-025
100
AcDbPolyline
 90
        2
 70
     0
 43
0.0
 10
622.390647
 20
-312.144755
 10
622.390647
 20
-330.232757
  0
LWPOLYLINE
  5
1A69
100
AcDbEntity
  8
VHH-025
100
AcDbPolyline
 90
        2
 70
     0
 43
0.0
 10
622.390647
 20
-330.076085
 10
622.390647
 20
-312.144755
  0
LWPOLYLINE
  5
1A6A
100
AcDbEntity
  8
VHH-025
100
AcDbPolyline
 90
       17
 70
     0
 43
0.0
 10
680.405605
 20
-321.070264
 10
680.267819
 20
-321.874136
 10
680.157237
 20
-322.242517
 10
680.093312
 20
-322.417734
 10
680.059406
 20
-322.50305
 10
680.041993
 20
-322.545131
 10
680.024283
 20
-322.586824
 10
679.647656
 20
-323.295
 10
679.424305
 20
-323.613517
 10
679.305165
 20
-323.763452
 10
679.243886
 20
-323.83605
 10
679.181527
 20
-323.907056
 10
678.603163
 20
-324.454445
 10
678.286346
 20
-324.687779
 10
678.122128
 20
-324.793976
 10
677.954452
 20
-324.893077
 10
676.460386
 20
-325.438479
  0
LWPOLYLINE
  5
1A6B
100
AcDbEntity
  8
VHH-025
100
AcDbPolyline
 90
       15
 70
     0
 43
0.0
 10
678.6054
 20
-320.781111
 10
678.530948
 20
-321.260797
 10
678.385098
 20
-321.7219
 10
678.337162
 20
-321.83412
 10
678.284982
 20
-321.943973
 10
678.168528
 20
-322.155477
 10
677.887234
 20
-322.545665
 10
677.806604
 20
-322.636219
 10
677.721877
 20
-322.72368
 10
677.543068
 20
-322.886265
 10
677.149564
 20
-323.161599
 10
677.043639
 20
-323.219949
 10
676.934631
 20
-323.273978
 10
676.710606
 20
-323.367359
 10
676.242873
 20
-323.494167
  0
LWPOLYLINE
  5
1A6C
100
AcDbEntity
  8
VHH-025
100
AcDbPolyline
 90
        2
 70
     0
 43
0.0
 10
595.136712
 20
-213.039073
 10
678.790647
 20
-213.031032
  0
LWPOLYLINE
  5
1A6D
100
AcDbEntity
  8
VHH-025
100
AcDbPolyline
 90
        4
 70
     0
 43
0.0
 10
582.390647
 20
-213.038884
 10
585.604409
 20
-213.038968
 10
588.818171
 20
-213.039027
 10
595.136712
 20
-213.039073
  0
LWPOLYLINE
  5
1A6E
100
AcDbEntity
  8
VHH-025
100
AcDbPolyline
 90
        4
 70
     0
 43
0.0
 10
569.644583
 20
-213.039073
 10
572.858345
 20
-213.039061
 10
576.072107
 20
-213.039025
 10
582.390647
 20
-213.038884
  0
LWPOLYLINE
  5
1A6F
100
AcDbEntity
  8
VHH-025
100
AcDbPolyline
 90
        2
 70
     0
 43
0.0
 10
687.493545
 20
-218.833978
 10
687.519615
 20
-218.158028
  0
LWPOLYLINE
  5
1A70
100
AcDbEntity
  8
VHH-025
100
AcDbPolyline
 90
        7
 70
     0
 43
0.0
 10
685.511686
 20
-218.158028
 10
686.229483
 20
-218.158028
 10
686.55564
 20
-218.158028
 10
686.848029
 20
-218.158028
 10
687.095209
 20
-218.158028
 10
687.293495
 20
-218.158028
 10
687.519615
 20
-218.158028
  0
LWPOLYLINE
  5
1A71
100
AcDbEntity
  8
VHH-025
100
AcDbPolyline
 90
        3
 70
     0
 43
0.0
 10
678.790647
 20
-218.158028
 10
682.520646
 20
-218.158028
 10
685.511686
 20
-218.158028
  0
LWPOLYLINE
  5
1A72
100
AcDbEntity
  8
VHH-025
100
AcDbPolyline
 90
        2
 70
     0
 43
0.0
 10
678.790647
 20
-218.158028
 10
678.790647
 20
-213.031032
  0
ELLIPSE
  5
1A73
100
AcDbEntity
  8
VHH-025
100
AcDbEllipse
 10
702.300026
 20
-304.0
 30
0.0
 11
-0.0000000000001328
 21
15.00000158390118
 31
0.0
210
0.0
220
0.0
230
1.0
 40
0.165303
 41
3.762083072775073
 42
5.662694887994195
  0
ARC
  5
1A74
100
AcDbEntity
  8
VHH-025
100
AcDbCircle
 10
701.793164
 20
-315.75319
 30
0.0
 40
2.0
100
AcDbArc
 50
293.797726
 51
346.976183
  0
ARC
  5
1A75
100
AcDbEntity
  8
VHH-025
100
AcDbCircle
 10
701.793164
 20
-292.24681
 30
0.0
 40
2.0
100
AcDbArc
 50
13.023817
 51
66.202274
  0
LINE
  5
1A76
100
AcDbEntity
  8
VHH-025
100
AcDbLine
 10
702.600182
 20
-317.583142
 30
0.0
 11
699.387385
 21
-319.000002
 31
0.0
  0
LINE
  5
1A77
100
AcDbEntity
  8
VHH-025
100
AcDbLine
 10
702.600182
 20
-290.416858
 30
0.0
 11
699.387385
 21
-288.999998
 31
0.0
  0
LWPOLYLINE
  5
1A78
100
AcDbEntity
  8
VHH-025
100
AcDbPolyline
 90
       17
 70
     0
 43
0.0
 10
622.88956
 20
-12.187836
 10
622.88956
 20
-12.223049
 10
622.88956
 20
-12.393928
 10
622.88956
 20
-12.671268
 10
622.88956
 20
-13.044553
 10
622.88956
 20
-13.499124
 10
622.88956
 20
-14.017812
 10
622.88956
 20
-14.580328
 10
622.88956
 20
-15.165356
 10
622.88956
 20
-15.750385
 10
622.88956
 20
-16.312901
 10
622.88956
 20
-16.831589
 10
622.88956
 20
-17.28616
 10
622.88956
 20
-17.659445
 10
622.88956
 20
-17.936785
 10
622.88956
 20
-18.107664
 10
622.88956
 20
-18.142877
  0
LWPOLYLINE
  5
1A79
100
AcDbEntity
  8
VHH-025
100
AcDbPolyline
 90
       17
 70
     0
 43
0.0
 10
621.88956
 20
-18.142877
 10
621.88956
 20
-18.107666
 10
621.88956
 20
-17.936795
 10
621.88956
 20
-17.659461
 10
621.88956
 20
-17.286185
 10
621.88956
 20
-16.831612
 10
621.88956
 20
-16.312926
 10
621.88956
 20
-15.750397
 10
621.88956
 20
-15.165356
 10
621.88956
 20
-14.580316
 10
621.88956
 20
-14.017787
 10
621.88956
 20
-13.499101
 10
621.88956
 20
-13.044528
 10
621.88956
 20
-12.671252
 10
621.88956
 20
-12.393918
 10
621.88956
 20
-12.223046
 10
621.88956
 20
-12.187836
  0
LINE
  5
1A7A
100
AcDbEntity
  8
VHH-025
100
AcDbLine
 10
669.88956
 20
-12.697285
 30
0.0
 11
669.88956
 21
-17.633427
 31
0.0
  0
LWPOLYLINE
  5
1A7B
100
AcDbEntity
  8
VHH-025
100
AcDbPolyline
 90
       17
 70
     0
 43
0.0
 10
542.88956
 20
-12.187836
 10
542.88956
 20
-12.223046
 10
542.88956
 20
-12.393918
 10
542.88956
 20
-12.671252
 10
542.88956
 20
-13.044528
 10
542.88956
 20
-13.499101
 10
542.88956
 20
-14.017787
 10
542.88956
 20
-14.580316
 10
542.88956
 20
-15.165356
 10
542.88956
 20
-15.750397
 10
542.88956
 20
-16.312926
 10
542.88956
 20
-16.831612
 10
542.88956
 20
-17.286185
 10
542.88956
 20
-17.659461
 10
542.88956
 20
-17.936795
 10
542.88956
 20
-18.107666
 10
542.88956
 20
-18.142877
  0
LWPOLYLINE
  5
1A7C
100
AcDbEntity
  8
VHH-025
100
AcDbPolyline
 90
       17
 70
     0
 43
0.0
 10
541.88956
 20
-18.142877
 10
541.88956
 20
-18.107664
 10
541.88956
 20
-17.936785
 10
541.88956
 20
-17.659445
 10
541.88956
 20
-17.28616
 10
541.88956
 20
-16.831589
 10
541.88956
 20
-16.312901
 10
541.88956
 20
-15.750385
 10
541.88956
 20
-15.165356
 10
541.88956
 20
-14.580328
 10
541.88956
 20
-14.017812
 10
541.88956
 20
-13.499124
 10
541.88956
 20
-13.044553
 10
541.88956
 20
-12.671268
 10
541.88956
 20
-12.393928
 10
541.88956
 20
-12.223049
 10
541.88956
 20
-12.187836
  0
LWPOLYLINE
  5
1A7D
100
AcDbEntity
  8
VHH-025
100
AcDbPolyline
 90
        2
 70
     0
 43
0.0
 10
621.88956
 20
-19.545375
 10
582.38956
 20
-19.665356
  0
CIRCLE
  5
1A7E
100
AcDbEntity
  8
VHH-025
100
AcDbCircle
 10
582.38956
 20
-60.0
 30
0.0
 40
12.0
  0
CIRCLE
  5
1A7F
100
AcDbEntity
  8
VHH-025
100
AcDbCircle
 10
582.38956
 20
-60.0
 30
0.0
 40
10.0
  0
LWPOLYLINE
  5
1A80
100
AcDbEntity
  8
VHH-025
100
AcDbPolyline
 90
        2
 70
     0
 43
0.0
 10
542.88956
 20
-18.142877
 10
542.88956
 20
-19.545375
  0
LWPOLYLINE
  5
1A81
100
AcDbEntity
  8
VHH-025
100
AcDbPolyline
 90
        2
 70
     0
 43
0.0
 10
541.88956
 20
-19.539228
 10
541.88956
 20
-18.142877
  0
LWPOLYLINE
  5
1A82
100
AcDbEntity
  8
VHH-025
100
AcDbPolyline
 90
        2
 70
     0
 43
0.0
 10
582.38956
 20
-19.665356
 10
542.88956
 20
-19.545375
  0
LINE
  5
1A83
100
AcDbEntity
  8
VHH-025
100
AcDbLine
 10
542.88956
 20
-19.045356
 30
0.0
 11
541.88956
 21
-19.045356
 31
0.0
  0
LINE
  5
1A84
100
AcDbEntity
  8
VHH-025
100
AcDbLine
 10
577.918896
 20
-54.756583
 30
0.0
 11
584.69516
 21
-66.493417
 31
0.0
  0
LINE
  5
1A85
100
AcDbEntity
  8
VHH-025
100
AcDbLine
 10
580.083959
 20
-53.506583
 30
0.0
 11
586.860224
 21
-65.243417
 31
0.0
  0
LINE
  5
1A86
100
AcDbEntity
  8
VHH-025
100
AcDbLine
 10
578.101909
 20
-54.07357
 30
0.0
 11
579.400947
 21
-53.32357
 31
0.0
  0
LINE
  5
1A87
100
AcDbEntity
  8
VHH-025
100
AcDbLine
 10
585.378173
 20
-66.67643
 30
0.0
 11
586.677211
 21
-65.92643
 31
0.0
  0
ARC
  5
1A88
100
AcDbEntity
  8
VHH-025
100
AcDbCircle
 10
585.128173
 20
-66.243417
 30
0.0
 40
0.5
100
AcDbArc
 50
210.0
 51
300.0
  0
ARC
  5
1A89
100
AcDbEntity
  8
VHH-025
100
AcDbCircle
 10
586.427211
 20
-65.493417
 30
0.0
 40
0.5
100
AcDbArc
 50
300.0
 51
30.0
  0
ARC
  5
1A8A
100
AcDbEntity
  8
VHH-025
100
AcDbCircle
 10
579.650947
 20
-53.756583
 30
0.0
 40
0.5
100
AcDbArc
 50
30.0
 51
120.0
  0
ARC
  5
1A8B
100
AcDbEntity
  8
VHH-025
100
AcDbCircle
 10
578.351909
 20
-54.506583
 30
0.0
 40
0.5
100
AcDbArc
 50
120.0
 51
210.0
  0
LWPOLYLINE
  5
1A8C
100
AcDbEntity
  8
VHH-025
100
AcDbPolyline
 90
        5
 70
     0
 43
0.0
 10
668.405069
 20
-19.097699
 10
669.003707
 20
-18.970563
 10
669.484578
 20
-18.638239
 10
669.789106
 20
-18.164663
 10
669.88956
 20
-17.633427
  0
LWPOLYLINE
  5
1A8D
100
AcDbEntity
  8
VHH-025
100
AcDbPolyline
 90
        2
 70
     0
 43
0.0
 10
622.88956
 20
-18.142877
 10
622.88956
 20
-19.539228
  0
LWPOLYLINE
  5
1A8E
100
AcDbEntity
  8
VHH-025
100
AcDbPolyline
 90
        2
 70
     0
 43
0.0
 10
621.88956
 20
-19.545375
 10
621.88956
 20
-18.142877
  0
LWPOLYLINE
  5
1A8F
100
AcDbEntity
  8
VHH-025
100
AcDbPolyline
 90
        2
 70
     0
 43
0.0
 10
668.405069
 20
-19.097699
 10
622.88956
 20
-19.539228
  0
LINE
  5
1A90
100
AcDbEntity
  8
VHH-025
100
AcDbLine
 10
622.88956
 20
-19.045356
 30
0.0
 11
621.88956
 21
-19.045356
 31
0.0
  0
LWPOLYLINE
  5
1A91
100
AcDbEntity
  8
VHH-025
100
AcDbPolyline
 90
        2
 70
     0
 43
0.0
 10
582.38956
 20
-10.665356
 10
621.88956
 20
-10.785337
  0
LWPOLYLINE
  5
1A92
100
AcDbEntity
  8
VHH-025
100
AcDbPolyline
 90
        2
 70
     0
 43
0.0
 10
542.88956
 20
-10.785337
 10
542.88956
 20
-12.187836
  0
LWPOLYLINE
  5
1A93
100
AcDbEntity
  8
VHH-025
100
AcDbPolyline
 90
        2
 70
     0
 43
0.0
 10
541.88956
 20
-12.187836
 10
541.88956
 20
-10.791485
  0
LWPOLYLINE
  5
1A94
100
AcDbEntity
  8
VHH-025
100
AcDbPolyline
 90
        2
 70
     0
 43
0.0
 10
542.88956
 20
-10.785337
 10
582.38956
 20
-10.665356
  0
LINE
  5
1A95
100
AcDbEntity
  8
VHH-025
100
AcDbLine
 10
541.88956
 20
-11.285356
 30
0.0
 11
542.88956
 21
-11.285356
 31
0.0
  0
LWPOLYLINE
  5
1A96
100
AcDbEntity
  8
VHH-025
100
AcDbPolyline
 90
        5
 70
     0
 43
0.0
 10
669.88956
 20
-12.697285
 10
669.779539
 20
-12.142364
 10
669.470371
 20
-11.677938
 10
668.999538
 20
-11.358353
 10
668.405069
 20
-11.233013
  0
LWPOLYLINE
  5
1A97
100
AcDbEntity
  8
VHH-025
100
AcDbPolyline
 90
        2
 70
     0
 43
0.0
 10
622.88956
 20
-10.791485
 10
622.88956
 20
-12.187836
  0
LWPOLYLINE
  5
1A98
100
AcDbEntity
  8
VHH-025
100
AcDbPolyline
 90
        2
 70
     0
 43
0.0
 10
621.88956
 20
-12.187836
 10
621.88956
 20
-10.785337
  0
LWPOLYLINE
  5
1A99
100
AcDbEntity
  8
VHH-025
100
AcDbPolyline
 90
        2
 70
     0
 43
0.0
 10
622.88956
 20
-10.791485
 10
668.405069
 20
-11.233013
  0
LINE
  5
1A9A
100
AcDbEntity
  8
VHH-025
100
AcDbLine
 10
621.88956
 20
-11.285356
 30
0.0
 11
622.88956
 21
-11.285356
 31
0.0
  0
ARC
  5
1A9B
100
AcDbEntity
  8
VHH-025
100
AcDbCircle
 10
701.793164
 20
-16.24681
 30
0.0
 40
2.0
100
AcDbArc
 50
13.023817
 51
66.202274
  0
ELLIPSE
  5
1A9C
100
AcDbEntity
  8
VHH-025
100
AcDbEllipse
 10
702.300026
 20
-28.0
 30
0.0
 11
-0.0000000000001328
 21
15.00000158390118
 31
0.0
210
0.0
220
0.0
230
1.0
 40
0.165303
 41
3.762083072775073
 42
5.662694887994195
  0
ARC
  5
1A9D
100
AcDbEntity
  8
VHH-025
100
AcDbCircle
 10
701.793164
 20
-39.75319
 30
0.0
 40
2.0
100
AcDbArc
 50
293.797726
 51
346.976183
  0
LINE
  5
1A9E
100
AcDbEntity
  8
VHH-025
100
AcDbLine
 10
702.600182
 20
-41.583142
 30
0.0
 11
699.387385
 21
-43.000002
 31
0.0
  0
LINE
  5
1A9F
100
AcDbEntity
  8
VHH-025
100
AcDbLine
 10
702.600182
 20
-14.416858
 30
0.0
 11
699.387385
 21
-12.999998
 31
0.0
  0
ENDSEC
  0
SECTION
  2
OBJECTS
  0
DICTIONARY
  5
C
100
AcDbDictionary
  3
ACAD_GROUP
350
D
  3
ACAD_MLINESTYLE
350
E
  3
AMACAD
350
975
  0
DICTIONARY
  5
D
102
{ACAD_REACTORS
330
C
102
}
100
AcDbDictionary
  0
DICTIONARY
  5
E
102
{ACAD_REACTORS
330
C
102
}
100
AcDbDictionary
  3
STANDARD
350
1B
  0
DICTIONARY
  5
975
102
{ACAD_REACTORS
330
C
102
}
100
AcDbDictionary
  3
AM_LOADER
350
976
  0
MLINESTYLE
  5
1B
102
{ACAD_REACTORS
330
E
102
}
100
AcDbMlineStyle
  2
STANDARD
 70
     0
  3

 62
     0
 51
90.0
 52
90.0
 71
     2
 49
0.5
 62
   256
  6
BYLAYER
 49
-0.5
 62
   256
  6
BYLAYER
  0
AMLOADER
  5
976
102
{ACAD_REACTORS
330
975
102
}
100
AMLoader
 90
        1
 70
     3
 70
     0
 70
   921
 70
   861
280
     0
  0
ENDSEC
  0
EOF
